ISO-10303-21;
HEADER;
FILE_DESCRIPTION (( 'STEP AP203' ),
    '1' );
FILE_NAME ('63965.step',
    '2021-12-01T10:40:28',
    ( '' ),
    ( '' ),
    'SwSTEP 2.0',
    'SolidWorks 2019',
    '' );
FILE_SCHEMA (( 'CONFIG_CONTROL_DESIGN' ));
ENDSEC;

DATA;
#1 = APPROVAL_STATUS ( 'not_yet_approved' ) ;
#2 = DIRECTION ( 'NONE',  ( -3.491481338843133355E-15, 1.224646799147353207E-16, -1.000000000000000000 ) ) ;
#3 = CC_DESIGN_PERSON_AND_ORGANIZATION_ASSIGNMENT ( #177, #18, ( #184 ) ) ;
#4 = EDGE_CURVE ( 'NONE', #168, #168, #276, .T. ) ;
#5 = CARTESIAN_POINT ( 'NONE',  ( 1.809238611683394900E-14, -6.345954795869002890E-16, 5.181865334794736988 ) ) ;
#6 = CIRCLE ( 'NONE', #293, 0.4849999999999987654 ) ;
#7 = DIRECTION ( 'NONE',  ( -4.275831445896958607E-31, -1.000000000000000000, -1.224646799147353207E-16 ) ) ;
#8 = ADVANCED_FACE ( 'NONE', ( #118 ), #220, .F. ) ;
#9 = AXIS2_PLACEMENT_3D ( 'NONE', #163, #216, #82 ) ;
#10 = EDGE_LOOP ( 'NONE', ( #193 ) ) ;
#11 = ORIENTED_EDGE ( 'NONE', *, *, #43, .T. ) ;
#12 = PERSON ( 'UNSPECIFIED', 'UNSPECIFIED', 'UNSPECIFIED', ('UNSPECIFIED'), ('UNSPECIFIED'), ('UNSPECIFIED') ) ;
#13 = FACE_BOUND ( 'NONE', #176, .T. ) ;
#14 = CIRCLE ( 'NONE', #68, 0.5899999999999997469 ) ;
#15 = CYLINDRICAL_SURFACE ( 'NONE', #237, 1.500000000000000444 ) ;
#16 = DATE_AND_TIME ( #212, #303 ) ;
#17 = EDGE_LOOP ( 'NONE', ( #74 ) ) ;
#18 = PERSON_AND_ORGANIZATION_ROLE ( 'creator' ) ;
#19 = DIRECTION ( 'NONE',  ( 0.0000000000000000000, 1.000000000000000000, 0.0000000000000000000 ) ) ;
#20 = COORDINATED_UNIVERSAL_TIME_OFFSET ( 1, 0, .AHEAD. ) ;
#21 = PLANE ( 'NONE',  #33 ) ;
#22 = TOROIDAL_SURFACE ( 'NONE', #137, 2.484999999999999432, 2.000000000000000000 ) ;
#23 = AXIS2_PLACEMENT_3D ( 'NONE', #94, #144, #122 ) ;
#24 = DESIGN_CONTEXT ( 'detailed design', #70, 'design' ) ;
#25 = DIRECTION ( 'NONE',  ( 0.0000000000000000000, 1.000000000000000000, 0.0000000000000000000 ) ) ;
#26 = AXIS2_PLACEMENT_3D ( 'NONE', #288, #58, #261 ) ;
#27 = CARTESIAN_POINT ( 'NONE',  ( 1.745740669421566678E-14, 4.424291358852468448E-33, 5.000000000000000000 ) ) ;
#28 = EDGE_LOOP ( 'NONE', ( #143 ) ) ;
#29 = EDGE_LOOP ( 'NONE', ( #294 ) ) ;
#30 = CARTESIAN_POINT ( 'NONE',  ( 6.260689839836381496E-14, 1.499999999999995559, 17.93132837396403545 ) ) ;
#31 = CARTESIAN_POINT ( 'NONE',  ( 1.745740669421566678E-14, -6.123233995736766282E-16, 5.000000000000000000 ) ) ;
#32 = CARTESIAN_POINT ( 'NONE',  ( 4.311035480981396413E-14, 0.5153844939755791721, 12.34729635533384773 ) ) ;
#33 = AXIS2_PLACEMENT_3D ( 'NONE', #27, #248, #289 ) ;
#34 = FACE_OUTER_BOUND ( 'NONE', #76, .T. ) ;
#35 = ORIENTED_EDGE ( 'NONE', *, *, #43, .F. ) ;
#36 = PERSON_AND_ORGANIZATION ( #12, #64 ) ;
#37 = CARTESIAN_POINT ( 'NONE',  ( 6.260689839836381496E-14, -2.195954389763516969E-15, 17.93132837396403545 ) ) ;
#38 = DIRECTION ( 'NONE',  ( 3.491481338843133355E-15, -1.224646799147353207E-16, 1.000000000000000000 ) ) ;
#39 = DIRECTION ( 'NONE',  ( 1.000000000000000000, 0.0000000000000000000, 0.0000000000000000000 ) ) ;
#40 = AXIS2_PLACEMENT_3D ( 'NONE', #79, #178, #62 ) ;
#41 = FACE_BOUND ( 'NONE', #107, .T. ) ;
#42 = DIRECTION ( 'NONE',  ( -3.491481338843133355E-15, 1.224646799147353207E-16, -1.000000000000000000 ) ) ;
#43 = EDGE_CURVE ( 'NONE', #169, #169, #14, .T. ) ;
#44 = CYLINDRICAL_SURFACE ( 'NONE', #23, 0.5899999999999994138 ) ;
#45 = CC_DESIGN_DATE_AND_TIME_ASSIGNMENT ( #110, #162, ( #101 ) ) ;
#46 = DIRECTION ( 'NONE',  ( 4.275831445896958607E-31, 1.000000000000000000, 1.224646799147353207E-16 ) ) ;
#47 = DIRECTION ( 'NONE',  ( -3.491481338843133355E-15, 1.224646799147353207E-16, -1.000000000000000000 ) ) ;
#48 = VERTEX_POINT ( 'NONE', #32 ) ;
#49 = EDGE_LOOP ( 'NONE', ( #77 ) ) ;
#50 = CONICAL_SURFACE ( 'NONE', #86, 0.4849999999999987654, 0.5235987755982913772 ) ;
#51 = CARTESIAN_POINT ( 'NONE',  ( 1.326762908760390423E-13, 1.199999999999998845, 38.00000000000000000 ) ) ;
#52 = CLOSED_SHELL ( 'NONE', ( #255, #201, #204, #159, #195, #87, #132, #8 ) ) ;
#53 = APPROVAL_DATE_TIME ( #135, #149 ) ;
#54 = PRODUCT_RELATED_PRODUCT_CATEGORY ( 'detail', '', ( #152 ) ) ;
#55 = DIRECTION ( 'NONE',  ( -3.491481338843133355E-15, 1.224646799147353207E-16, -1.000000000000000000 ) ) ;
#56 = PERSON_AND_ORGANIZATION ( #12, #64 ) ;
#57 = AXIS2_PLACEMENT_3D ( 'NONE', #95, #145, #271 ) ;
#58 = DIRECTION ( 'NONE',  ( -3.491481338843133355E-15, 1.224646799147353207E-16, -1.000000000000000000 ) ) ;
#59 = APPLICATION_PROTOCOL_DEFINITION ( 'international standard', 'config_control_design', 1994, #174 ) ;
#60 = FACE_OUTER_BOUND ( 'NONE', #150, .T. ) ;
#61 = SECURITY_CLASSIFICATION_LEVEL ( 'unclassified' ) ;
#62 = DIRECTION ( 'NONE',  ( 0.0000000000000000000, -1.000000000000000000, 0.0000000000000000000 ) ) ;
#63 = ORIENTED_EDGE ( 'NONE', *, *, #244, .F. ) ;
#64 = ORGANIZATION ( 'UNSPECIFIED', 'UNSPECIFIED', '' ) ;
#65 = CARTESIAN_POINT ( 'NONE',  ( 1.316288464743861212E-13, -4.616918432785521081E-15, 37.69999999999999574 ) ) ;
#66 = DIRECTION ( 'NONE',  ( -4.275831445896958607E-31, -1.000000000000000000, -1.224646799147353207E-16 ) ) ;
#67 = MANIFOLD_SOLID_BREP ( 'Corps-Déplacer/Copier1[1]', #52 ) ;
#68 = AXIS2_PLACEMENT_3D ( 'NONE', #31, #55, #156 ) ;
#69 = MANIFOLD_SOLID_BREP ( 'Corps-Déplacer/Copier1[2]', #93 ) ;
#70 = APPLICATION_CONTEXT ( 'configuration controlled 3d designs of mechanical parts and assemblies' ) ;
#71 = ORIENTED_EDGE ( 'NONE', *, *, #210, .F. ) ;
#72 = CARTESIAN_POINT ( 'NONE',  ( 0.0000000000000000000, 0.0000000000000000000, 0.0000000000000000000 ) ) ;
#73 = AXIS2_PLACEMENT_3D ( 'NONE', #96, #42, #142 ) ;
#74 = ORIENTED_EDGE ( 'NONE', *, *, #268, .T. ) ;
#75 = EDGE_CURVE ( 'NONE', #222, #222, #226, .T. ) ;
#76 = EDGE_LOOP ( 'NONE', ( #280 ) ) ;
#77 = ORIENTED_EDGE ( 'NONE', *, *, #75, .F. ) ;
#78 = MECHANICAL_CONTEXT ( 'NONE', #174, 'mechanical' ) ;
#79 = CARTESIAN_POINT ( 'NONE',  ( 6.260689839836381496E-14, -2.195954389763516969E-15, 17.93132837396403545 ) ) ;
#80 = AXIS2_PLACEMENT_3D ( 'NONE', #141, #140, #284 ) ;
#81 = CALENDAR_DATE ( 2021, 1, 12 ) ;
#82 = DIRECTION ( 'NONE',  ( 0.0000000000000000000, 1.000000000000000000, 0.0000000000000000000 ) ) ;
#83 = DIRECTION ( 'NONE',  ( 4.275831445896958607E-31, 1.000000000000000000, 1.224646799147353207E-16 ) ) ;
#84 = CALENDAR_DATE ( 2021, 1, 12 ) ;
#85 = DIRECTION ( 'NONE',  ( -3.491481338843133355E-15, 1.224646799147353207E-16, -1.000000000000000000 ) ) ;
#86 = AXIS2_PLACEMENT_3D ( 'NONE', #282, #238, #25 ) ;
#87 = ADVANCED_FACE ( 'NONE', ( #292, #34 ), #15, .T. ) ;
#88 = CYLINDRICAL_SURFACE ( 'NONE', #116, 0.4849999999999990985 ) ;
#89 = ADVANCED_FACE ( 'NONE', ( #13, #104 ), #209, .T. ) ;
#90 = CIRCLE ( 'NONE', #146, 1.499999999999997558 ) ;
#91 = APPROVAL_PERSON_ORGANIZATION ( #281, #102, #203 ) ;
#92 = EDGE_LOOP ( 'NONE', ( #71 ) ) ;
#93 = CLOSED_SHELL ( 'NONE', ( #266, #89, #267, #202 ) ) ;
#94 = CARTESIAN_POINT ( 'NONE',  ( 0.0000000000000000000, 0.0000000000000000000, 0.0000000000000000000 ) ) ;
#95 = CARTESIAN_POINT ( 'NONE',  ( 1.745740669421566678E-14, -6.123233995736766282E-16, 5.000000000000000000 ) ) ;
#96 = CARTESIAN_POINT ( 'NONE',  ( 4.311035480981396413E-14, -1.512107695968337660E-15, 12.34729635533384773 ) ) ;
#97 = EDGE_LOOP ( 'NONE', ( #11 ) ) ;
#98 =( LENGTH_UNIT ( ) NAMED_UNIT ( * ) SI_UNIT ( .MILLI., .METRE. ) );
#99 = AXIS2_PLACEMENT_3D ( 'NONE', #290, #218, #66 ) ;
#100 = EDGE_CURVE ( 'NONE', #148, #148, #90, .T. ) ;
#101 = SECURITY_CLASSIFICATION ( '', '', #61 ) ;
#102 = APPROVAL ( #1, 'UNSPECIFIED' ) ;
#103 = CC_DESIGN_DATE_AND_TIME_ASSIGNMENT ( #259, #180, ( #184 ) ) ;
#104 = FACE_OUTER_BOUND ( 'NONE', #151, .T. ) ;
#105 = CONICAL_SURFACE ( 'NONE', #9, 1.200000000000003286, 0.7853981633974453924 ) ;
#106 = COORDINATED_UNIVERSAL_TIME_OFFSET ( 1, 0, .AHEAD. ) ;
#107 = EDGE_LOOP ( 'NONE', ( #205 ) ) ;
#108 = CALENDAR_DATE ( 2021, 1, 12 ) ;
#109 = FACE_OUTER_BOUND ( 'NONE', #17, .T. ) ;
#110 = DATE_AND_TIME ( #108, #211 ) ;
#111 = APPROVAL_PERSON_ORGANIZATION ( #279, #221, #185 ) ;
#112 = COORDINATED_UNIVERSAL_TIME_OFFSET ( 1, 0, .AHEAD. ) ;
#113 = PLANE ( 'NONE',  #230 ) ;
#114 = FACE_OUTER_BOUND ( 'NONE', #92, .T. ) ;
#115 = FACE_OUTER_BOUND ( 'NONE', #49, .T. ) ;
#116 = AXIS2_PLACEMENT_3D ( 'NONE', #263, #2, #215 ) ;
#117 = APPROVAL_PERSON_ORGANIZATION ( #214, #149, #302 ) ;
#118 = FACE_OUTER_BOUND ( 'NONE', #10, .T. ) ;
#119 =( GEOMETRIC_REPRESENTATION_CONTEXT ( 3 ) GLOBAL_UNCERTAINTY_ASSIGNED_CONTEXT ( ( #190 ) ) GLOBAL_UNIT_ASSIGNED_CONTEXT ( ( #98, #252, #227 ) ) REPRESENTATION_CONTEXT ( 'NONE', 'WORKASPACE' ) );
#120 = CARTESIAN_POINT ( 'NONE',  ( 1.745740669421566678E-14, 0.5899999999999990807, 5.000000000000000000 ) ) ;
#121 = EDGE_LOOP ( 'NONE', ( #278 ) ) ;
#122 = DIRECTION ( 'NONE',  ( 4.275831445896958607E-31, 1.000000000000000000, 1.224646799147353207E-16 ) ) ;
#123 = DIRECTION ( 'NONE',  ( -3.491481338843133355E-15, 1.224646799147353207E-16, -1.000000000000000000 ) ) ;
#124 = AXIS2_PLACEMENT_3D ( 'NONE', #200, #47, #46 ) ;
#125 = CC_DESIGN_APPROVAL ( #221, ( #184 ) ) ;
#126 = CARTESIAN_POINT ( 'NONE',  ( 8.728703347107835360E-16, 0.5899999999999990807, 0.2500000000000000555 ) ) ;
#127 = EDGE_LOOP ( 'NONE', ( #170 ) ) ;
#128 = ORIENTED_EDGE ( 'NONE', *, *, #4, .F. ) ;
#129 = LOCAL_TIME ( 11, 40, 28.00000000000000000, #262 ) ;
#130 = PERSON_AND_ORGANIZATION_ROLE ( 'design_supplier' ) ;
#131 = DIRECTION ( 'NONE',  ( -3.491481338843133355E-15, 1.224646799147353207E-16, -1.000000000000000000 ) ) ;
#132 = ADVANCED_FACE ( 'NONE', ( #234, #41 ), #105, .T. ) ;
#133 = APPROVAL_STATUS ( 'not_yet_approved' ) ;
#134 = FACE_OUTER_BOUND ( 'NONE', #249, .T. ) ;
#135 = DATE_AND_TIME ( #84, #129 ) ;
#136 = DIRECTION ( 'NONE',  ( -3.491481338843133355E-15, 1.224646799147353207E-16, -1.000000000000000000 ) ) ;
#137 = AXIS2_PLACEMENT_3D ( 'NONE', #206, #235, #83 ) ;
#138 = DATE_AND_TIME ( #298, #198 ) ;
#139 = AXIS2_PLACEMENT_3D ( 'NONE', #196, #245, #223 ) ;
#140 = DIRECTION ( 'NONE',  ( -3.491481338843133355E-15, 1.224646799147353207E-16, -1.000000000000000000 ) ) ;
#141 = CARTESIAN_POINT ( 'NONE',  ( 8.728703347107833388E-16, -3.061616997868383018E-17, 0.2500000000000000000 ) ) ;
#142 = DIRECTION ( 'NONE',  ( 0.0000000000000000000, 1.000000000000000000, 0.0000000000000000000 ) ) ;
#143 = ORIENTED_EDGE ( 'NONE', *, *, #75, .T. ) ;
#144 = DIRECTION ( 'NONE',  ( -3.491481338843133355E-15, 1.224646799147353207E-16, -1.000000000000000000 ) ) ;
#145 = DIRECTION ( 'NONE',  ( -3.491481338843133355E-15, 1.224646799147353207E-16, -1.000000000000000000 ) ) ;
#146 = AXIS2_PLACEMENT_3D ( 'NONE', #37, #131, #240 ) ;
#147 = VERTEX_POINT ( 'NONE', #228 ) ;
#148 = VERTEX_POINT ( 'NONE', #30 ) ;
#149 = APPROVAL ( #157, 'UNSPECIFIED' ) ;
#150 = EDGE_LOOP ( 'NONE', ( #35 ) ) ;
#151 = EDGE_LOOP ( 'NONE', ( #250 ) ) ;
#152 = PRODUCT ( '63965', '63965', '', ( #78 ) ) ;
#153 = EDGE_CURVE ( 'NONE', #224, #224, #217, .T. ) ;
#154 = CC_DESIGN_PERSON_AND_ORGANIZATION_ASSIGNMENT ( #56, #130, ( #199 ) ) ;
#155 = VERTEX_POINT ( 'NONE', #295 ) ;
#156 = DIRECTION ( 'NONE',  ( 0.0000000000000000000, 1.000000000000000000, 0.0000000000000000000 ) ) ;
#157 = APPROVAL_STATUS ( 'not_yet_approved' ) ;
#158 = CIRCLE ( 'NONE', #26, 0.4456624327025946464 ) ;
#159 = ADVANCED_FACE ( 'NONE', ( #181, #109 ), #22, .F. ) ;
#160 = PERSON_AND_ORGANIZATION ( #12, #64 ) ;
#161 = FACE_OUTER_BOUND ( 'NONE', #97, .T. ) ;
#162 = DATE_TIME_ROLE ( 'classification_date' ) ;
#163 = CARTESIAN_POINT ( 'NONE',  ( 1.326762908760390423E-13, -4.653657836759941941E-15, 38.00000000000000000 ) ) ;
#164 = PERSON_AND_ORGANIZATION_ROLE ( 'classification_officer' ) ;
#165 = FACE_BOUND ( 'NONE', #121, .T. ) ;
#166 = DIRECTION ( 'NONE',  ( -3.491481338843133355E-15, 1.224646799147353207E-16, -1.000000000000000000 ) ) ;
#167 = FACE_OUTER_BOUND ( 'NONE', #127, .T. ) ;
#168 = VERTEX_POINT ( 'NONE', #246 ) ;
#169 = VERTEX_POINT ( 'NONE', #120 ) ;
#170 = ORIENTED_EDGE ( 'NONE', *, *, #244, .T. ) ;
#171 = VERTEX_POINT ( 'NONE', #273 ) ;
#172 = ORIENTED_EDGE ( 'NONE', *, *, #100, .T. ) ;
#173 = PRODUCT_DEFINITION_SHAPE ( 'NONE', 'NONE',  #184 ) ;
#174 = APPLICATION_CONTEXT ( 'configuration controlled 3d designs of mechanical parts and assemblies' ) ;
#175 = EDGE_LOOP ( 'NONE', ( #258 ) ) ;
#176 = EDGE_LOOP ( 'NONE', ( #63 ) ) ;
#177 = PERSON_AND_ORGANIZATION ( #12, #64 ) ;
#178 = DIRECTION ( 'NONE',  ( 3.491481338843133355E-15, -1.224646799147353207E-16, 1.000000000000000000 ) ) ;
#179 = CC_DESIGN_APPROVAL ( #102, ( #199 ) ) ;
#180 = DATE_TIME_ROLE ( 'creation_date' ) ;
#181 = FACE_OUTER_BOUND ( 'NONE', #232, .T. ) ;
#182 = CC_DESIGN_PERSON_AND_ORGANIZATION_ASSIGNMENT ( #233, #164, ( #101 ) ) ;
#183 = ADVANCED_BREP_SHAPE_REPRESENTATION ( '63965', ( #67, #69, #239 ), #119 ) ;
#184 = PRODUCT_DEFINITION ( 'UNKNOWN', '', #199, #24 ) ;
#185 = APPROVAL_ROLE ( '' ) ;
#186 = FACE_OUTER_BOUND ( 'NONE', #299, .T. ) ;
#187 = DIRECTION ( 'NONE',  ( 0.0000000000000000000, 1.000000000000000000, 0.0000000000000000000 ) ) ;
#188 = CONICAL_SURFACE ( 'NONE', #40, 1.499999999999997558, 0.1745329251994261754 ) ;
#189 = PLANE ( 'NONE',  #99 ) ;
#190 = UNCERTAINTY_MEASURE_WITH_UNIT (LENGTH_MEASURE( 1.000000000000000082E-05 ), #98, 'distance_accuracy_value', 'NONE');
#191 = EDGE_CURVE ( 'NONE', #274, #274, #192, .T. ) ;
#192 = CIRCLE ( 'NONE', #80, 0.5899999999999990807 ) ;
#193 = ORIENTED_EDGE ( 'NONE', *, *, #153, .F. ) ;
#194 = EDGE_LOOP ( 'NONE', ( #269 ) ) ;
#195 = ADVANCED_FACE ( 'NONE', ( #286, #186 ), #188, .T. ) ;
#196 = CARTESIAN_POINT ( 'NONE',  ( 4.189777606611760026E-14, -1.469576158976823947E-15, 12.00000000000000000 ) ) ;
#197 = CIRCLE ( 'NONE', #241, 1.500000000000003331 ) ;
#198 = LOCAL_TIME ( 11, 40, 28.00000000000000000, #106 ) ;
#199 = PRODUCT_DEFINITION_FORMATION_WITH_SPECIFIED_SOURCE ( 'ANY', '', #152, .NOT_KNOWN. ) ;
#200 = CARTESIAN_POINT ( 'NONE',  ( 1.326762908760390423E-13, 8.998558695971103225E-33, 38.00000000000000000 ) ) ;
#201 = ADVANCED_FACE ( 'NONE', ( #60, #165 ), #50, .T. ) ;
#202 = ADVANCED_FACE ( 'NONE', ( #115 ), #113, .T. ) ;
#203 = APPROVAL_ROLE ( '' ) ;
#204 = ADVANCED_FACE ( 'NONE', ( #114, #134 ), #88, .T. ) ;
#205 = ORIENTED_EDGE ( 'NONE', *, *, #153, .T. ) ;
#206 = CARTESIAN_POINT ( 'NONE',  ( 4.189777606611760026E-14, -1.301042606982605321E-15, 12.00000000000000000 ) ) ;
#207 = APPROVAL_DATE_TIME ( #138, #102 ) ;
#208 = DIRECTION ( 'NONE',  ( -3.264288041334303207E-31, -1.000000000000000000, -9.188154004114458855E-17 ) ) ;
#209 = CONICAL_SURFACE ( 'NONE', #253, 0.5899999999999990807, 0.5235987755982924874 ) ;
#210 = EDGE_CURVE ( 'NONE', #155, #155, #6, .T. ) ;
#211 = LOCAL_TIME ( 11, 40, 28.00000000000000000, #277 ) ;
#212 = CALENDAR_DATE ( 2021, 1, 12 ) ;
#213 = DIRECTION ( 'NONE',  ( 3.491481338843133355E-15, -1.224646799147353207E-16, 1.000000000000000000 ) ) ;
#214 = PERSON_AND_ORGANIZATION ( #12, #64 ) ;
#215 = DIRECTION ( 'NONE',  ( 4.275831445896958607E-31, 1.000000000000000000, 1.224646799147352961E-16 ) ) ;
#216 = DIRECTION ( 'NONE',  ( -3.491481338843133355E-15, 1.224646799147353207E-16, -1.000000000000000000 ) ) ;
#217 = CIRCLE ( 'NONE', #287, 1.200000000000003286 ) ;
#218 = DIRECTION ( 'NONE',  ( 3.491481338843133355E-15, -1.224646799147353207E-16, 1.000000000000000000 ) ) ;
#219 = FACE_OUTER_BOUND ( 'NONE', #28, .T. ) ;
#220 = PLANE ( 'NONE',  #124 ) ;
#221 = APPROVAL ( #133, 'UNSPECIFIED' ) ;
#222 = VERTEX_POINT ( 'NONE', #270 ) ;
#223 = DIRECTION ( 'NONE',  ( 0.0000000000000000000, 1.000000000000000000, 0.0000000000000000000 ) ) ;
#224 = VERTEX_POINT ( 'NONE', #51 ) ;
#225 = DIRECTION ( 'NONE',  ( 4.275831445896958607E-31, 1.000000000000000000, 1.224646799147353207E-16 ) ) ;
#226 = CIRCLE ( 'NONE', #57, 0.5899999999999997469 ) ;
#227 =( NAMED_UNIT ( * ) SI_UNIT ( $, .STERADIAN. ) SOLID_ANGLE_UNIT ( ) );
#228 = CARTESIAN_POINT ( 'NONE',  ( -1.892735826383161137E-31, 0.4456624327025946464, -5.421010862427522170E-17 ) ) ;
#229 = EDGE_LOOP ( 'NONE', ( #247 ) ) ;
#230 = AXIS2_PLACEMENT_3D ( 'NONE', #264, #213, #7 ) ;
#231 = APPLICATION_PROTOCOL_DEFINITION ( 'international standard', 'config_control_design', 1994, #70 ) ;
#232 = EDGE_LOOP ( 'NONE', ( #128 ) ) ;
#233 = PERSON_AND_ORGANIZATION ( #12, #64 ) ;
#234 = FACE_OUTER_BOUND ( 'NONE', #175, .T. ) ;
#235 = DIRECTION ( 'NONE',  ( -3.491481338843133355E-15, 1.224646799147353207E-16, -1.000000000000000000 ) ) ;
#236 = SHAPE_DEFINITION_REPRESENTATION ( #173, #183 ) ;
#237 = AXIS2_PLACEMENT_3D ( 'NONE', #72, #123, #225 ) ;
#238 = DIRECTION ( 'NONE',  ( -3.491481338843133355E-15, 1.224646799147353207E-16, -1.000000000000000000 ) ) ;
#239 = AXIS2_PLACEMENT_3D ( 'NONE', #300, #260, #39 ) ;
#240 = DIRECTION ( 'NONE',  ( 0.0000000000000000000, 1.000000000000000000, 0.0000000000000000000 ) ) ;
#241 = AXIS2_PLACEMENT_3D ( 'NONE', #65, #166, #265 ) ;
#242 = LOCAL_TIME ( 11, 40, 28.00000000000000000, #112 ) ;
#243 = FACE_OUTER_BOUND ( 'NONE', #29, .T. ) ;
#244 = EDGE_CURVE ( 'NONE', #147, #147, #158, .T. ) ;
#245 = DIRECTION ( 'NONE',  ( -3.491481338843133355E-15, 1.224646799147353207E-16, -1.000000000000000000 ) ) ;
#246 = CARTESIAN_POINT ( 'NONE',  ( 4.189777606611760026E-14, 0.4849999999999980438, 12.00000000000000000 ) ) ;
#247 = ORIENTED_EDGE ( 'NONE', *, *, #268, .F. ) ;
#248 = DIRECTION ( 'NONE',  ( 3.491481338843133355E-15, -1.224646799147353207E-16, 1.000000000000000000 ) ) ;
#249 = EDGE_LOOP ( 'NONE', ( #291 ) ) ;
#250 = ORIENTED_EDGE ( 'NONE', *, *, #191, .T. ) ;
#251 = EDGE_CURVE ( 'NONE', #171, #171, #197, .T. ) ;
#252 =( NAMED_UNIT ( * ) PLANE_ANGLE_UNIT ( ) SI_UNIT ( $, .RADIAN. ) );
#253 = AXIS2_PLACEMENT_3D ( 'NONE', #297, #38, #208 ) ;
#254 = CC_DESIGN_APPROVAL ( #149, ( #101 ) ) ;
#255 = ADVANCED_FACE ( 'NONE', ( #161 ), #21, .F. ) ;
#256 = CC_DESIGN_PERSON_AND_ORGANIZATION_ASSIGNMENT ( #36, #283, ( #199 ) ) ;
#257 = PERSON_AND_ORGANIZATION_ROLE ( 'design_owner' ) ;
#258 = ORIENTED_EDGE ( 'NONE', *, *, #251, .F. ) ;
#259 = DATE_AND_TIME ( #81, #242 ) ;
#260 = DIRECTION ( 'NONE',  ( 0.0000000000000000000, 0.0000000000000000000, 1.000000000000000000 ) ) ;
#261 = DIRECTION ( 'NONE',  ( 4.275831445896958607E-31, 1.000000000000000000, 1.224646799147353207E-16 ) ) ;
#262 = COORDINATED_UNIVERSAL_TIME_OFFSET ( 1, 0, .AHEAD. ) ;
#263 = CARTESIAN_POINT ( 'NONE',  ( 0.0000000000000000000, 0.0000000000000000000, 0.0000000000000000000 ) ) ;
#264 = CARTESIAN_POINT ( 'NONE',  ( 1.745740669421566678E-14, 4.424291358852468448E-33, 5.000000000000000000 ) ) ;
#265 = DIRECTION ( 'NONE',  ( 0.0000000000000000000, 1.000000000000000000, 0.0000000000000000000 ) ) ;
#266 = ADVANCED_FACE ( 'NONE', ( #167 ), #189, .F. ) ;
#267 = ADVANCED_FACE ( 'NONE', ( #243, #219 ), #44, .T. ) ;
#268 = EDGE_CURVE ( 'NONE', #48, #48, #272, .T. ) ;
#269 = ORIENTED_EDGE ( 'NONE', *, *, #100, .F. ) ;
#270 = CARTESIAN_POINT ( 'NONE',  ( 1.745740669421566678E-14, 0.5899999999999990807, 5.000000000000000000 ) ) ;
#271 = DIRECTION ( 'NONE',  ( 0.0000000000000000000, 1.000000000000000000, 0.0000000000000000000 ) ) ;
#272 = CIRCLE ( 'NONE', #73, 0.5153844939755807264 ) ;
#273 = CARTESIAN_POINT ( 'NONE',  ( 1.316288464743861212E-13, 1.499999999999998668, 37.69999999999999574 ) ) ;
#274 = VERTEX_POINT ( 'NONE', #126 ) ;
#275 = CC_DESIGN_SECURITY_CLASSIFICATION ( #101, ( #199 ) ) ;
#276 = CIRCLE ( 'NONE', #139, 0.4849999999999994871 ) ;
#277 = COORDINATED_UNIVERSAL_TIME_OFFSET ( 1, 0, .AHEAD. ) ;
#278 = ORIENTED_EDGE ( 'NONE', *, *, #210, .T. ) ;
#279 = PERSON_AND_ORGANIZATION ( #12, #64 ) ;
#280 = ORIENTED_EDGE ( 'NONE', *, *, #251, .T. ) ;
#281 = PERSON_AND_ORGANIZATION ( #12, #64 ) ;
#282 = CARTESIAN_POINT ( 'NONE',  ( 1.809238611683394900E-14, -6.345954795869002890E-16, 5.181865334794736988 ) ) ;
#283 = PERSON_AND_ORGANIZATION_ROLE ( 'creator' ) ;
#284 = DIRECTION ( 'NONE',  ( 3.264288041334303207E-31, 1.000000000000000000, 9.188154004114458855E-17 ) ) ;
#285 = APPROVAL_DATE_TIME ( #16, #221 ) ;
#286 = FACE_BOUND ( 'NONE', #229, .T. ) ;
#287 = AXIS2_PLACEMENT_3D ( 'NONE', #301, #136, #19 ) ;
#288 = CARTESIAN_POINT ( 'NONE',  ( -3.798313270387852528E-31, 1.332268953292087702E-32, -1.087880157952207400E-16 ) ) ;
#289 = DIRECTION ( 'NONE',  ( -4.275831445896958607E-31, -1.000000000000000000, -1.224646799147353207E-16 ) ) ;
#290 = CARTESIAN_POINT ( 'NONE',  ( -1.899156635193926264E-31, 6.661344766460438510E-33, -5.439400789761036998E-17 ) ) ;
#291 = ORIENTED_EDGE ( 'NONE', *, *, #4, .T. ) ;
#292 = FACE_OUTER_BOUND ( 'NONE', #194, .T. ) ;
#293 = AXIS2_PLACEMENT_3D ( 'NONE', #5, #85, #187 ) ;
#294 = ORIENTED_EDGE ( 'NONE', *, *, #191, .F. ) ;
#295 = CARTESIAN_POINT ( 'NONE',  ( 1.809238611683394900E-14, 0.4849999999999981548, 5.181865334794736988 ) ) ;
#296 = CC_DESIGN_PERSON_AND_ORGANIZATION_ASSIGNMENT ( #160, #257, ( #152 ) ) ;
#297 = CARTESIAN_POINT ( 'NONE',  ( 8.728703347107833388E-16, -3.061616997868383018E-17, 0.2500000000000000000 ) ) ;
#298 = CALENDAR_DATE ( 2021, 1, 12 ) ;
#299 = EDGE_LOOP ( 'NONE', ( #172 ) ) ;
#300 = CARTESIAN_POINT ( 'NONE',  ( 0.0000000000000000000, 0.0000000000000000000, 0.0000000000000000000 ) ) ;
#301 = CARTESIAN_POINT ( 'NONE',  ( 1.326762908760390423E-13, -4.653657836759941941E-15, 38.00000000000000000 ) ) ;
#302 = APPROVAL_ROLE ( '' ) ;
#303 = LOCAL_TIME ( 11, 40, 28.00000000000000000, #20 ) ;
ENDSEC;
END-ISO-10303-21;
