ISO-10303-21;
HEADER;
FILE_DESCRIPTION (( 'STEP AP203' ),
    '1' );
FILE_NAME ('63946.step',
    '2021-11-17T09:32:02',
    ( '' ),
    ( '' ),
    'SwSTEP 2.0',
    'SolidWorks 2019',
    '' );
FILE_SCHEMA (( 'CONFIG_CONTROL_DESIGN' ));
ENDSEC;

DATA;
#1 = PERSON_AND_ORGANIZATION_ROLE ( 'creator' ) ;
#2 = PERSON_AND_ORGANIZATION ( #177, #207 ) ;
#3 = DATE_TIME_ROLE ( 'creation_date' ) ;
#4 = AXIS2_PLACEMENT_3D ( 'NONE', #44, #116, #45 ) ;
#5 = APPROVAL_ROLE ( '' ) ;
#6 = DIRECTION ( 'NONE',  ( -4.275831445896958607E-31, -1.000000000000000000, -1.224646799147353207E-16 ) ) ;
#7 =( GEOMETRIC_REPRESENTATION_CONTEXT ( 3 ) GLOBAL_UNCERTAINTY_ASSIGNED_CONTEXT ( ( #25 ) ) GLOBAL_UNIT_ASSIGNED_CONTEXT ( ( #238, #15, #142 ) ) REPRESENTATION_CONTEXT ( 'NONE', 'WORKASPACE' ) );
#8 = FACE_BOUND ( 'NONE', #193, .T. ) ;
#9 = DIRECTION ( 'NONE',  ( 3.491481338843133355E-15, -1.213121118695619454E-16, 1.000000000000000000 ) ) ;
#10 = DIRECTION ( 'NONE',  ( 4.275831445896958607E-31, 1.000000000000000000, 1.224646799147353207E-16 ) ) ;
#11 = SECURITY_CLASSIFICATION ( '', '', #127 ) ;
#12 = VERTEX_POINT ( 'NONE', #89 ) ;
#13 = DIRECTION ( 'NONE',  ( 0.0000000000000000000, 1.000000000000000000, 0.0000000000000000000 ) ) ;
#14 = CONICAL_SURFACE ( 'NONE', #158, 2.000000000000000888, 0.7853981633974540522 ) ;
#15 =( NAMED_UNIT ( * ) PLANE_ANGLE_UNIT ( ) SI_UNIT ( $, .RADIAN. ) );
#16 = PERSON_AND_ORGANIZATION_ROLE ( 'classification_officer' ) ;
#17 = AXIS2_PLACEMENT_3D ( 'NONE', #160, #216, #91 ) ;
#18 = PERSON_AND_ORGANIZATION ( #177, #207 ) ;
#19 = APPROVAL_STATUS ( 'not_yet_approved' ) ;
#20 = EDGE_CURVE ( 'NONE', #70, #70, #189, .T. ) ;
#21 = PERSON_AND_ORGANIZATION ( #177, #207 ) ;
#22 = PRODUCT_RELATED_PRODUCT_CATEGORY ( 'detail', '', ( #65 ) ) ;
#23 = EDGE_LOOP ( 'NONE', ( #211 ) ) ;
#24 = APPROVAL_PERSON_ORGANIZATION ( #18, #93, #5 ) ;
#25 = UNCERTAINTY_MEASURE_WITH_UNIT (LENGTH_MEASURE( 1.000000000000000082E-05 ), #238, 'distance_accuracy_value', 'NONE');
#26 = DIRECTION ( 'NONE',  ( -4.294882511864260911E-31, -1.000000000000000000, -1.230103241304255752E-16 ) ) ;
#27 = FACE_OUTER_BOUND ( 'NONE', #43, .T. ) ;
#28 = CC_DESIGN_APPROVAL ( #222, ( #11 ) ) ;
#29 = MECHANICAL_CONTEXT ( 'NONE', #170, 'mechanical' ) ;
#30 = ADVANCED_FACE ( 'NONE', ( #174, #175 ), #62, .T. ) ;
#31 = VERTEX_POINT ( 'NONE', #109 ) ;
#32 = DIRECTION ( 'NONE',  ( -4.275831445896958607E-31, -1.000000000000000000, -1.224646799147353207E-16 ) ) ;
#33 = AXIS2_PLACEMENT_3D ( 'NONE', #233, #118, #195 ) ;
#34 = FACE_OUTER_BOUND ( 'NONE', #58, .T. ) ;
#35 = PERSON_AND_ORGANIZATION_ROLE ( 'creator' ) ;
#36 = CC_DESIGN_SECURITY_CLASSIFICATION ( #11, ( #169 ) ) ;
#37 = SHAPE_DEFINITION_REPRESENTATION ( #232, #112 ) ;
#38 = DATE_AND_TIME ( #72, #150 ) ;
#39 = CIRCLE ( 'NONE', #128, 1.250000000000000000 ) ;
#40 = APPROVAL_DATE_TIME ( #55, #240 ) ;
#41 = ADVANCED_FACE ( 'NONE', ( #8, #27 ), #107, .T. ) ;
#42 = EDGE_LOOP ( 'NONE', ( #194 ) ) ;
#43 = EDGE_LOOP ( 'NONE', ( #227 ) ) ;
#44 = CARTESIAN_POINT ( 'NONE',  ( 1.745740669421563473E-16, -6.150516206521297863E-18, 0.04999999999999990563 ) ) ;
#45 = DIRECTION ( 'NONE',  ( -4.237045877651918877E-31, -1.000000000000000000, -1.246832498358330099E-16 ) ) ;
#46 = ORIENTED_EDGE ( 'NONE', *, *, #110, .F. ) ;
#47 = CC_DESIGN_DATE_AND_TIME_ASSIGNMENT ( #226, #3, ( #134 ) ) ;
#48 = APPLICATION_CONTEXT ( 'configuration controlled 3d designs of mechanical parts and assemblies' ) ;
#49 = PLANE ( 'NONE',  #124 ) ;
#50 = DIRECTION ( 'NONE',  ( -4.235589747682261318E-31, -1.000000000000000000, -1.213121118695619207E-16 ) ) ;
#51 = FACE_OUTER_BOUND ( 'NONE', #221, .T. ) ;
#52 = AXIS2_PLACEMENT_3D ( 'NONE', #143, #162, #32 ) ;
#53 = COORDINATED_UNIVERSAL_TIME_OFFSET ( 1, 0, .AHEAD. ) ;
#54 = ORIENTED_EDGE ( 'NONE', *, *, #20, .T. ) ;
#55 = DATE_AND_TIME ( #208, #92 ) ;
#56 = CC_DESIGN_DATE_AND_TIME_ASSIGNMENT ( #38, #131, ( #11 ) ) ;
#57 = LOCAL_TIME ( 10, 32, 2.000000000000000000, #225 ) ;
#58 = EDGE_LOOP ( 'NONE', ( #76 ) ) ;
#59 = APPROVAL_PERSON_ORGANIZATION ( #2, #222, #74 ) ;
#60 = ORIENTED_EDGE ( 'NONE', *, *, #98, .T. ) ;
#61 = DIRECTION ( 'NONE',  ( 3.491481338843133355E-15, -1.213121118695619454E-16, 1.000000000000000000 ) ) ;
#62 = CYLINDRICAL_SURFACE ( 'NONE', #235, 2.000000000000000444 ) ;
#63 = CIRCLE ( 'NONE', #133, 1.700000000000002620 ) ;
#64 = DIRECTION ( 'NONE',  ( 3.491481338843133355E-15, -1.224646799147353207E-16, 1.000000000000000000 ) ) ;
#65 = PRODUCT ( '63946', '63946', '', ( #29 ) ) ;
#66 = EDGE_LOOP ( 'NONE', ( #115 ) ) ;
#67 = CARTESIAN_POINT ( 'NONE',  ( 1.735266225405037719E-13, 1.999999999999994893, 49.70000000000000995 ) ) ;
#68 = AXIS2_PLACEMENT_3D ( 'NONE', #108, #183, #181 ) ;
#69 = FACE_OUTER_BOUND ( 'NONE', #213, .T. ) ;
#70 = VERTEX_POINT ( 'NONE', #202 ) ;
#71 = VERTEX_POINT ( 'NONE', #239 ) ;
#72 = CALENDAR_DATE ( 2021, 17, 11 ) ;
#73 = APPROVAL_DATE_TIME ( #148, #222 ) ;
#74 = APPROVAL_ROLE ( '' ) ;
#75 = APPLICATION_PROTOCOL_DEFINITION ( 'international standard', 'config_control_design', 1994, #48 ) ;
#76 = ORIENTED_EDGE ( 'NONE', *, *, #242, .F. ) ;
#77 = PLANE ( 'NONE',  #229 ) ;
#78 = CIRCLE ( 'NONE', #196, 1.249999999999994671 ) ;
#79 = DIRECTION ( 'NONE',  ( -4.237045877651918877E-31, -1.000000000000000000, -1.246832498358330099E-16 ) ) ;
#80 = CC_DESIGN_PERSON_AND_ORGANIZATION_ASSIGNMENT ( #113, #35, ( #134 ) ) ;
#81 = DIRECTION ( 'NONE',  ( 4.275831445896958607E-31, 1.000000000000000000, 1.224646799147353207E-16 ) ) ;
#82 = DIRECTION ( 'NONE',  ( -4.312561615517796903E-31, -1.000000000000000000, -1.213121118695619454E-16 ) ) ;
#83 = TOROIDAL_SURFACE ( 'NONE', #166, 9.249999999999994671, 8.000000000000000000 ) ;
#84 = CARTESIAN_POINT ( 'NONE',  ( 2.228241503965254602E-14, -4.102699578466855994E-16, 6.381937314617180057 ) ) ;
#85 = ADVANCED_FACE ( 'NONE', ( #234, #140 ), #83, .F. ) ;
#86 = CYLINDRICAL_SURFACE ( 'NONE', #119, 1.249999999999994449 ) ;
#87 = CARTESIAN_POINT ( 'NONE',  ( 1.745740669421566678E-13, -6.123233995736766085E-15, 50.00000000000000000 ) ) ;
#88 = CARTESIAN_POINT ( 'NONE',  ( 1.745740669421566678E-13, 1.274795815262571851E-32, 50.00000000000000000 ) ) ;
#89 = CARTESIAN_POINT ( 'NONE',  ( 1.745740669421566678E-13, 1.699999999999996625, 50.00000000000000000 ) ) ;
#90 = ADVANCED_FACE ( 'NONE', ( #155 ), #176, .T. ) ;
#91 = DIRECTION ( 'NONE',  ( 0.0000000000000000000, 1.000000000000000000, 0.0000000000000000000 ) ) ;
#92 = LOCAL_TIME ( 10, 32, 2.000000000000000000, #209 ) ;
#93 = APPROVAL ( #223, 'UNSPECIFIED' ) ;
#94 = PERSON_AND_ORGANIZATION_ROLE ( 'design_supplier' ) ;
#95 = MANIFOLD_SOLID_BREP ( 'Corps-Déplacer/Copier1[2]', #200 ) ;
#96 = PERSON_AND_ORGANIZATION_ROLE ( 'design_owner' ) ;
#97 = CARTESIAN_POINT ( 'NONE',  ( 1.047444401652939218E-14, 0.0000000000000000000, 2.999999999999997780 ) ) ;
#98 = EDGE_CURVE ( 'NONE', #145, #145, #210, .T. ) ;
#99 = CIRCLE ( 'NONE', #17, 2.000000000000000888 ) ;
#100 = EDGE_LOOP ( 'NONE', ( #114 ) ) ;
#101 = DESIGN_CONTEXT ( 'detailed design', #48, 'design' ) ;
#102 = ORIENTED_EDGE ( 'NONE', *, *, #20, .F. ) ;
#103 = FACE_OUTER_BOUND ( 'NONE', #220, .T. ) ;
#104 = CLOSED_SHELL ( 'NONE', ( #30, #219, #201, #85, #230 ) ) ;
#105 = CARTESIAN_POINT ( 'NONE',  ( 1.047444401652939691E-14, 1.499759782661857060E-32, 2.999999999999999112 ) ) ;
#106 = ADVANCED_FACE ( 'NONE', ( #103 ), #77, .T. ) ;
#107 = CONICAL_SURFACE ( 'NONE', #4, 1.250000000000000000, 0.7853981633974512766 ) ;
#108 = CARTESIAN_POINT ( 'NONE',  ( 0.0000000000000000000, 0.0000000000000000000, 0.0000000000000000000 ) ) ;
#109 = CARTESIAN_POINT ( 'NONE',  ( 1.047444401652939375E-14, -1.249999999999995115, 2.999999999999998224 ) ) ;
#110 = EDGE_CURVE ( 'NONE', #198, #198, #243, .T. ) ;
#111 = PERSON_AND_ORGANIZATION ( #177, #207 ) ;
#112 = ADVANCED_BREP_SHAPE_REPRESENTATION ( '63946', ( #171, #95, #68 ), #7 ) ;
#113 = PERSON_AND_ORGANIZATION ( #177, #207 ) ;
#114 = ORIENTED_EDGE ( 'NONE', *, *, #187, .T. ) ;
#115 = ORIENTED_EDGE ( 'NONE', *, *, #153, .T. ) ;
#116 = DIRECTION ( 'NONE',  ( 3.491481338843133355E-15, -1.230103241304255752E-16, 1.000000000000000000 ) ) ;
#117 = EDGE_LOOP ( 'NONE', ( #46 ) ) ;
#118 = DIRECTION ( 'NONE',  ( 3.491481338843133355E-15, -1.213121118695619454E-16, 1.000000000000000000 ) ) ;
#119 = AXIS2_PLACEMENT_3D ( 'NONE', #146, #126, #50 ) ;
#120 = APPLICATION_PROTOCOL_DEFINITION ( 'international standard', 'config_control_design', 1994, #170 ) ;
#121 = DIRECTION ( 'NONE',  ( -3.491481338843133355E-15, 1.224646799147353207E-16, -1.000000000000000000 ) ) ;
#122 = CARTESIAN_POINT ( 'NONE',  ( 2.228241503965254602E-14, 2.000000000000000000, 6.381937314617180057 ) ) ;
#123 = DIRECTION ( 'NONE',  ( -3.491481338843133355E-15, 1.224646799147353207E-16, -1.000000000000000000 ) ) ;
#124 = AXIS2_PLACEMENT_3D ( 'NONE', #88, #241, #199 ) ;
#125 = EDGE_CURVE ( 'NONE', #71, #71, #39, .T. ) ;
#126 = DIRECTION ( 'NONE',  ( 3.491481338843133355E-15, -1.213121118695619454E-16, 1.000000000000000000 ) ) ;
#127 = SECURITY_CLASSIFICATION_LEVEL ( 'unclassified' ) ;
#128 = AXIS2_PLACEMENT_3D ( 'NONE', #237, #135, #79 ) ;
#129 = CC_DESIGN_APPROVAL ( #240, ( #169 ) ) ;
#130 = CALENDAR_DATE ( 2021, 17, 11 ) ;
#131 = DATE_TIME_ROLE ( 'classification_date' ) ;
#132 = PERSON_AND_ORGANIZATION ( #177, #207 ) ;
#133 = AXIS2_PLACEMENT_3D ( 'NONE', #87, #121, #203 ) ;
#134 = PRODUCT_DEFINITION ( 'UNKNOWN', '', #169, #101 ) ;
#135 = DIRECTION ( 'NONE',  ( 3.491481338843133355E-15, -1.230103241304255752E-16, 1.000000000000000000 ) ) ;
#136 = DIRECTION ( 'NONE',  ( 0.0000000000000000000, -1.000000000000000000, 0.0000000000000000000 ) ) ;
#137 = DIRECTION ( 'NONE',  ( -3.491481338843133355E-15, 1.224646799147353207E-16, -1.000000000000000000 ) ) ;
#138 = AXIS2_PLACEMENT_3D ( 'NONE', #214, #179, #26 ) ;
#139 = LOCAL_TIME ( 10, 32, 2.000000000000000000, #204 ) ;
#140 = FACE_OUTER_BOUND ( 'NONE', #66, .T. ) ;
#141 = ORIENTED_EDGE ( 'NONE', *, *, #98, .F. ) ;
#142 =( NAMED_UNIT ( * ) SI_UNIT ( $, .STERADIAN. ) SOLID_ANGLE_UNIT ( ) );
#143 = CARTESIAN_POINT ( 'NONE',  ( 1.047444401652939691E-14, 1.499759782661857060E-32, 2.999999999999999112 ) ) ;
#144 = CC_DESIGN_PERSON_AND_ORGANIZATION_ASSIGNMENT ( #111, #16, ( #11 ) ) ;
#145 = VERTEX_POINT ( 'NONE', #182 ) ;
#146 = CARTESIAN_POINT ( 'NONE',  ( -6.413747168845438786E-31, 0.0000000000000000000, -1.836970198721029934E-16 ) ) ;
#147 = AXIS2_PLACEMENT_3D ( 'NONE', #84, #159, #228 ) ;
#148 = DATE_AND_TIME ( #151, #139 ) ;
#149 = ORIENTED_EDGE ( 'NONE', *, *, #187, .F. ) ;
#150 = LOCAL_TIME ( 10, 32, 2.000000000000000000, #53 ) ;
#151 = CALENDAR_DATE ( 2021, 17, 11 ) ;
#152 = APPROVAL_DATE_TIME ( #188, #93 ) ;
#153 = EDGE_CURVE ( 'NONE', #31, #31, #78, .T. ) ;
#154 = CARTESIAN_POINT ( 'NONE',  ( -4.275831445896957731E-31, 1.499759782661857608E-32, -1.224646799147353207E-16 ) ) ;
#155 = FACE_OUTER_BOUND ( 'NONE', #191, .T. ) ;
#156 = ORIENTED_EDGE ( 'NONE', *, *, #153, .F. ) ;
#157 = CARTESIAN_POINT ( 'NONE',  ( 0.0000000000000000000, 0.0000000000000000000, 0.0000000000000000000 ) ) ;
#158 = AXIS2_PLACEMENT_3D ( 'NONE', #217, #123, #13 ) ;
#159 = DIRECTION ( 'NONE',  ( 3.491481338843133355E-15, -1.213121118695619454E-16, 1.000000000000000000 ) ) ;
#160 = CARTESIAN_POINT ( 'NONE',  ( 1.735266225405037719E-13, -6.086494591762346014E-15, 49.70000000000000995 ) ) ;
#161 = CC_DESIGN_PERSON_AND_ORGANIZATION_ASSIGNMENT ( #184, #94, ( #169 ) ) ;
#162 = DIRECTION ( 'NONE',  ( 3.491481338843133355E-15, -1.224646799147353207E-16, 1.000000000000000000 ) ) ;
#163 = VERTEX_POINT ( 'NONE', #67 ) ;
#164 = PLANE ( 'NONE',  #52 ) ;
#165 = COORDINATED_UNIVERSAL_TIME_OFFSET ( 1, 0, .AHEAD. ) ;
#166 = AXIS2_PLACEMENT_3D ( 'NONE', #97, #9, #82 ) ;
#167 = APPROVAL_STATUS ( 'not_yet_approved' ) ;
#168 = APPROVAL_ROLE ( '' ) ;
#169 = PRODUCT_DEFINITION_FORMATION_WITH_SPECIFIED_SOURCE ( 'ANY', '', #65, .NOT_KNOWN. ) ;
#170 = APPLICATION_CONTEXT ( 'configuration controlled 3d designs of mechanical parts and assemblies' ) ;
#171 = MANIFOLD_SOLID_BREP ( 'Corps-Déplacer/Copier1[1]', #104 ) ;
#172 = ORIENTED_EDGE ( 'NONE', *, *, #242, .T. ) ;
#173 = ADVANCED_FACE ( 'NONE', ( #212, #197 ), #86, .T. ) ;
#174 = FACE_OUTER_BOUND ( 'NONE', #190, .T. ) ;
#175 = FACE_OUTER_BOUND ( 'NONE', #42, .T. ) ;
#176 = PLANE ( 'NONE',  #186 ) ;
#177 = PERSON ( 'UNSPECIFIED', 'UNSPECIFIED', 'UNSPECIFIED', ('UNSPECIFIED'), ('UNSPECIFIED'), ('UNSPECIFIED') ) ;
#178 = DIRECTION ( 'NONE',  ( -3.491481338843133355E-15, 1.224646799147353207E-16, -1.000000000000000000 ) ) ;
#179 = DIRECTION ( 'NONE',  ( 3.491481338843133355E-15, -1.230103241304255752E-16, 1.000000000000000000 ) ) ;
#180 = CC_DESIGN_PERSON_AND_ORGANIZATION_ASSIGNMENT ( #21, #96, ( #65 ) ) ;
#181 = DIRECTION ( 'NONE',  ( 1.000000000000000000, 0.0000000000000000000, 0.0000000000000000000 ) ) ;
#182 = CARTESIAN_POINT ( 'NONE',  ( -1.030771802847422444E-30, -1.199999999999999734, -2.952247779130213113E-16 ) ) ;
#183 = DIRECTION ( 'NONE',  ( 0.0000000000000000000, 0.0000000000000000000, 1.000000000000000000 ) ) ;
#184 = PERSON_AND_ORGANIZATION ( #177, #207 ) ;
#185 = PERSON_AND_ORGANIZATION ( #177, #207 ) ;
#186 = AXIS2_PLACEMENT_3D ( 'NONE', #105, #64, #6 ) ;
#187 = EDGE_CURVE ( 'NONE', #12, #12, #63, .T. ) ;
#188 = DATE_AND_TIME ( #206, #57 ) ;
#189 = CIRCLE ( 'NONE', #33, 1.249999999999994671 ) ;
#190 = EDGE_LOOP ( 'NONE', ( #172 ) ) ;
#191 = EDGE_LOOP ( 'NONE', ( #54 ) ) ;
#192 = LOCAL_TIME ( 10, 32, 2.000000000000000000, #165 ) ;
#193 = EDGE_LOOP ( 'NONE', ( #60 ) ) ;
#194 = ORIENTED_EDGE ( 'NONE', *, *, #110, .T. ) ;
#195 = DIRECTION ( 'NONE',  ( 0.0000000000000000000, -1.000000000000000000, 0.0000000000000000000 ) ) ;
#196 = AXIS2_PLACEMENT_3D ( 'NONE', #231, #61, #136 ) ;
#197 = FACE_OUTER_BOUND ( 'NONE', #23, .T. ) ;
#198 = VERTEX_POINT ( 'NONE', #122 ) ;
#199 = DIRECTION ( 'NONE',  ( 4.275831445896958607E-31, 1.000000000000000000, 1.224646799147353207E-16 ) ) ;
#200 = CLOSED_SHELL ( 'NONE', ( #173, #90, #41, #106 ) ) ;
#201 = ADVANCED_FACE ( 'NONE', ( #51 ), #49, .F. ) ;
#202 = CARTESIAN_POINT ( 'NONE',  ( 1.047444401652939375E-14, -1.249999999999995115, 2.999999999999998224 ) ) ;
#203 = DIRECTION ( 'NONE',  ( 0.0000000000000000000, 1.000000000000000000, 0.0000000000000000000 ) ) ;
#204 = COORDINATED_UNIVERSAL_TIME_OFFSET ( 1, 0, .AHEAD. ) ;
#205 = CC_DESIGN_PERSON_AND_ORGANIZATION_ASSIGNMENT ( #185, #1, ( #169 ) ) ;
#206 = CALENDAR_DATE ( 2021, 17, 11 ) ;
#207 = ORGANIZATION ( 'UNSPECIFIED', 'UNSPECIFIED', '' ) ;
#208 = CALENDAR_DATE ( 2021, 17, 11 ) ;
#209 = COORDINATED_UNIVERSAL_TIME_OFFSET ( 1, 0, .AHEAD. ) ;
#210 = CIRCLE ( 'NONE', #138, 1.199999999999999734 ) ;
#211 = ORIENTED_EDGE ( 'NONE', *, *, #125, .T. ) ;
#212 = FACE_OUTER_BOUND ( 'NONE', #215, .T. ) ;
#213 = EDGE_LOOP ( 'NONE', ( #156 ) ) ;
#214 = CARTESIAN_POINT ( 'NONE',  ( -5.153859014237112218E-31, -1.197099213047399123E-32, -1.476123889565106557E-16 ) ) ;
#215 = EDGE_LOOP ( 'NONE', ( #102 ) ) ;
#216 = DIRECTION ( 'NONE',  ( -3.491481338843133355E-15, 1.224646799147353207E-16, -1.000000000000000000 ) ) ;
#217 = CARTESIAN_POINT ( 'NONE',  ( 1.735266225405037719E-13, -6.086494591762346014E-15, 49.70000000000000995 ) ) ;
#218 = FACE_BOUND ( 'NONE', #100, .T. ) ;
#219 = ADVANCED_FACE ( 'NONE', ( #218, #34 ), #14, .T. ) ;
#220 = EDGE_LOOP ( 'NONE', ( #141 ) ) ;
#221 = EDGE_LOOP ( 'NONE', ( #149 ) ) ;
#222 = APPROVAL ( #19, 'UNSPECIFIED' ) ;
#223 = APPROVAL_STATUS ( 'not_yet_approved' ) ;
#224 = CC_DESIGN_APPROVAL ( #93, ( #134 ) ) ;
#225 = COORDINATED_UNIVERSAL_TIME_OFFSET ( 1, 0, .AHEAD. ) ;
#226 = DATE_AND_TIME ( #130, #192 ) ;
#227 = ORIENTED_EDGE ( 'NONE', *, *, #125, .F. ) ;
#228 = DIRECTION ( 'NONE',  ( 0.0000000000000000000, 1.000000000000000000, 0.0000000000000000000 ) ) ;
#229 = AXIS2_PLACEMENT_3D ( 'NONE', #154, #178, #10 ) ;
#230 = ADVANCED_FACE ( 'NONE', ( #69 ), #164, .F. ) ;
#231 = CARTESIAN_POINT ( 'NONE',  ( 1.047444401652939375E-14, -3.639363356086856390E-16, 2.999999999999998224 ) ) ;
#232 = PRODUCT_DEFINITION_SHAPE ( 'NONE', 'NONE',  #134 ) ;
#233 = CARTESIAN_POINT ( 'NONE',  ( 1.047444401652939375E-14, -3.639363356086856390E-16, 2.999999999999998224 ) ) ;
#234 = FACE_OUTER_BOUND ( 'NONE', #117, .T. ) ;
#235 = AXIS2_PLACEMENT_3D ( 'NONE', #157, #137, #81 ) ;
#236 = APPROVAL_PERSON_ORGANIZATION ( #132, #240, #168 ) ;
#237 = CARTESIAN_POINT ( 'NONE',  ( 1.745740669421563473E-16, -6.150516206521297863E-18, 0.04999999999999990563 ) ) ;
#238 =( LENGTH_UNIT ( ) NAMED_UNIT ( * ) SI_UNIT ( .MILLI., .METRE. ) );
#239 = CARTESIAN_POINT ( 'NONE',  ( 1.745740669421558296E-16, -1.250000000000000000, 0.04999999999999975298 ) ) ;
#240 = APPROVAL ( #167, 'UNSPECIFIED' ) ;
#241 = DIRECTION ( 'NONE',  ( -3.491481338843133355E-15, 1.224646799147353207E-16, -1.000000000000000000 ) ) ;
#242 = EDGE_CURVE ( 'NONE', #163, #163, #99, .T. ) ;
#243 = CIRCLE ( 'NONE', #147, 2.000000000000000444 ) ;
ENDSEC;
END-ISO-10303-21;
