ISO-10303-21;
HEADER;
FILE_DESCRIPTION (( 'STEP AP203' ),
    '1' );
FILE_NAME ('63945.step',
    '2021-11-17T09:32:02',
    ( '' ),
    ( '' ),
    'SwSTEP 2.0',
    'SolidWorks 2019',
    '' );
FILE_SCHEMA (( 'CONFIG_CONTROL_DESIGN' ));
ENDSEC;

DATA;
#1 = ORIENTED_EDGE ( 'NONE', *, *, #216, .F. ) ;
#2 =( NAMED_UNIT ( * ) PLANE_ANGLE_UNIT ( ) SI_UNIT ( $, .RADIAN. ) );
#3 = PERSON_AND_ORGANIZATION ( #176, #4 ) ;
#4 = ORGANIZATION ( 'UNSPECIFIED', 'UNSPECIFIED', '' ) ;
#5 = VERTEX_POINT ( 'NONE', #175 ) ;
#6 = CARTESIAN_POINT ( 'NONE',  ( 1.735266225405037719E-13, 1.999999999999994893, 49.70000000000000995 ) ) ;
#7 = CC_DESIGN_PERSON_AND_ORGANIZATION_ASSIGNMENT ( #143, #11, ( #104 ) ) ;
#8 = PLANE ( 'NONE',  #199 ) ;
#9 = AXIS2_PLACEMENT_3D ( 'NONE', #116, #43, #227 ) ;
#10 = COORDINATED_UNIVERSAL_TIME_OFFSET ( 1, 0, .AHEAD. ) ;
#11 = PERSON_AND_ORGANIZATION_ROLE ( 'creator' ) ;
#12 = ADVANCED_BREP_SHAPE_REPRESENTATION ( '63945', ( #177, #100, #22 ), #220 ) ;
#13 = PERSON_AND_ORGANIZATION ( #176, #4 ) ;
#14 = DATE_AND_TIME ( #93, #206 ) ;
#15 = CIRCLE ( 'NONE', #66, 0.7499999999999997780 ) ;
#16 = DIRECTION ( 'NONE',  ( 3.491481338843133355E-15, -1.230103241304255752E-16, 1.000000000000000000 ) ) ;
#17 = ORIENTED_EDGE ( 'NONE', *, *, #34, .F. ) ;
#18 = AXIS2_PLACEMENT_3D ( 'NONE', #153, #209, #189 ) ;
#19 = CARTESIAN_POINT ( 'NONE',  ( -3.167313117873596119E-31, -1.896990264713769859E-32, -9.071545314124614971E-17 ) ) ;
#20 = CARTESIAN_POINT ( 'NONE',  ( 1.745740669421541286E-16, -6.150516206521220055E-18, 0.04999999999999927419 ) ) ;
#21 = DIRECTION ( 'NONE',  ( 0.0000000000000000000, -1.000000000000000000, 0.0000000000000000000 ) ) ;
#22 = AXIS2_PLACEMENT_3D ( 'NONE', #46, #233, #232 ) ;
#23 = DIRECTION ( 'NONE',  ( -3.491481338843133355E-15, 1.224646799147353207E-16, -1.000000000000000000 ) ) ;
#24 = FACE_OUTER_BOUND ( 'NONE', #167, .T. ) ;
#25 = PRODUCT ( '63945', '63945', '', ( #156 ) ) ;
#26 = DIRECTION ( 'NONE',  ( -3.491481338843133355E-15, 1.224646799147353207E-16, -1.000000000000000000 ) ) ;
#27 = DIRECTION ( 'NONE',  ( 3.491481338843133355E-15, -1.230103241304255752E-16, 1.000000000000000000 ) ) ;
#28 = EDGE_CURVE ( 'NONE', #106, #106, #182, .T. ) ;
#29 = PLANE ( 'NONE',  #112 ) ;
#30 = EDGE_LOOP ( 'NONE', ( #129 ) ) ;
#31 = CC_DESIGN_SECURITY_CLASSIFICATION ( #139, ( #104 ) ) ;
#32 = PERSON_AND_ORGANIZATION ( #176, #4 ) ;
#33 = APPROVAL_ROLE ( '' ) ;
#34 = EDGE_CURVE ( 'NONE', #67, #67, #107, .T. ) ;
#35 = EDGE_LOOP ( 'NONE', ( #193 ) ) ;
#36 = DATE_TIME_ROLE ( 'creation_date' ) ;
#37 = CC_DESIGN_APPROVAL ( #145, ( #104 ) ) ;
#38 = ADVANCED_FACE ( 'NONE', ( #133, #241 ), #229, .T. ) ;
#39 = EDGE_LOOP ( 'NONE', ( #172 ) ) ;
#40 = PLANE ( 'NONE',  #185 ) ;
#41 = FACE_BOUND ( 'NONE', #39, .T. ) ;
#42 = DIRECTION ( 'NONE',  ( 0.0000000000000000000, -1.000000000000000000, 0.0000000000000000000 ) ) ;
#43 = DIRECTION ( 'NONE',  ( 3.491481338843133355E-15, -1.213121118695619454E-16, 1.000000000000000000 ) ) ;
#44 =( LENGTH_UNIT ( ) NAMED_UNIT ( * ) SI_UNIT ( .MILLI., .METRE. ) );
#45 = CLOSED_SHELL ( 'NONE', ( #186, #56, #203, #152, #108 ) ) ;
#46 = CARTESIAN_POINT ( 'NONE',  ( 0.0000000000000000000, 0.0000000000000000000, 0.0000000000000000000 ) ) ;
#47 =( NAMED_UNIT ( * ) SI_UNIT ( $, .STERADIAN. ) SOLID_ANGLE_UNIT ( ) );
#48 = AXIS2_PLACEMENT_3D ( 'NONE', #135, #23, #231 ) ;
#49 = CARTESIAN_POINT ( 'NONE',  ( 1.745740669421566678E-13, 1.274795815262571851E-32, 50.00000000000000000 ) ) ;
#50 = DATE_AND_TIME ( #72, #173 ) ;
#51 = EDGE_LOOP ( 'NONE', ( #132 ) ) ;
#52 = DATE_AND_TIME ( #146, #161 ) ;
#53 = APPROVAL_ROLE ( '' ) ;
#54 = APPROVAL_ROLE ( '' ) ;
#55 = ORIENTED_EDGE ( 'NONE', *, *, #68, .F. ) ;
#56 = ADVANCED_FACE ( 'NONE', ( #41, #59 ), #154, .T. ) ;
#57 = AXIS2_PLACEMENT_3D ( 'NONE', #207, #238, #42 ) ;
#58 = EDGE_LOOP ( 'NONE', ( #211 ) ) ;
#59 = FACE_OUTER_BOUND ( 'NONE', #35, .T. ) ;
#60 = ORIENTED_EDGE ( 'NONE', *, *, #228, .F. ) ;
#61 = PRODUCT_RELATED_PRODUCT_CATEGORY ( 'detail', '', ( #25 ) ) ;
#62 = CYLINDRICAL_SURFACE ( 'NONE', #48, 2.000000000000000444 ) ;
#63 = AXIS2_PLACEMENT_3D ( 'NONE', #19, #155, #117 ) ;
#64 = CC_DESIGN_DATE_AND_TIME_ASSIGNMENT ( #50, #74, ( #139 ) ) ;
#65 = FACE_OUTER_BOUND ( 'NONE', #83, .T. ) ;
#66 = AXIS2_PLACEMENT_3D ( 'NONE', #124, #27, #109 ) ;
#67 = VERTEX_POINT ( 'NONE', #69 ) ;
#68 = EDGE_CURVE ( 'NONE', #138, #138, #243, .T. ) ;
#69 = CARTESIAN_POINT ( 'NONE',  ( 1.047444401652939691E-14, -0.7499999999999891198, 2.999999999999999112 ) ) ;
#70 = CARTESIAN_POINT ( 'NONE',  ( 2.546648434662941312E-14, -5.209009864794783197E-16, 7.293891009329430908 ) ) ;
#71 = AXIS2_PLACEMENT_3D ( 'NONE', #169, #174, #208 ) ;
#72 = CALENDAR_DATE ( 2021, 17, 11 ) ;
#73 = COORDINATED_UNIVERSAL_TIME_OFFSET ( 1, 0, .AHEAD. ) ;
#74 = DATE_TIME_ROLE ( 'classification_date' ) ;
#75 = CLOSED_SHELL ( 'NONE', ( #38, #222, #84, #184 ) ) ;
#76 = ORIENTED_EDGE ( 'NONE', *, *, #28, .F. ) ;
#77 = APPROVAL_STATUS ( 'not_yet_approved' ) ;
#78 = EDGE_LOOP ( 'NONE', ( #147 ) ) ;
#79 = AXIS2_PLACEMENT_3D ( 'NONE', #150, #134, #224 ) ;
#80 = DIRECTION ( 'NONE',  ( -4.172848212839012475E-31, -1.000000000000000000, -1.264902534566422168E-16 ) ) ;
#81 = CARTESIAN_POINT ( 'NONE',  ( -4.275831445896957731E-31, 1.499759782661857608E-32, -1.224646799147353207E-16 ) ) ;
#82 = FACE_OUTER_BOUND ( 'NONE', #97, .T. ) ;
#83 = EDGE_LOOP ( 'NONE', ( #202 ) ) ;
#84 = ADVANCED_FACE ( 'NONE', ( #115, #188 ), #165, .T. ) ;
#85 = EDGE_LOOP ( 'NONE', ( #17 ) ) ;
#86 = APPLICATION_PROTOCOL_DEFINITION ( 'international standard', 'config_control_design', 1994, #164 ) ;
#87 = DIRECTION ( 'NONE',  ( 0.0000000000000000000, 1.000000000000000000, 0.0000000000000000000 ) ) ;
#88 = AXIS2_PLACEMENT_3D ( 'NONE', #70, #110, #87 ) ;
#89 = UNCERTAINTY_MEASURE_WITH_UNIT (LENGTH_MEASURE( 1.000000000000000082E-05 ), #44, 'distance_accuracy_value', 'NONE');
#90 = CC_DESIGN_APPROVAL ( #99, ( #139 ) ) ;
#91 = COORDINATED_UNIVERSAL_TIME_OFFSET ( 1, 0, .AHEAD. ) ;
#92 = PRODUCT_DEFINITION ( 'UNKNOWN', '', #104, #162 ) ;
#93 = CALENDAR_DATE ( 2021, 17, 11 ) ;
#94 = EDGE_CURVE ( 'NONE', #140, #140, #221, .T. ) ;
#95 = APPROVAL_DATE_TIME ( #52, #99 ) ;
#96 = EDGE_LOOP ( 'NONE', ( #60 ) ) ;
#97 = EDGE_LOOP ( 'NONE', ( #1 ) ) ;
#98 = FACE_OUTER_BOUND ( 'NONE', #85, .T. ) ;
#99 = APPROVAL ( #77, 'UNSPECIFIED' ) ;
#100 = MANIFOLD_SOLID_BREP ( 'Corps-Déplacer/Copier1[2]', #75 ) ;
#101 = FACE_OUTER_BOUND ( 'NONE', #126, .T. ) ;
#102 = CARTESIAN_POINT ( 'NONE',  ( 1.735266225405037719E-13, -6.086494591762346014E-15, 49.70000000000000995 ) ) ;
#103 = DIRECTION ( 'NONE',  ( 3.491481338843133355E-15, -1.213121118695619454E-16, 1.000000000000000000 ) ) ;
#104 = PRODUCT_DEFINITION_FORMATION_WITH_SPECIFIED_SOURCE ( 'ANY', '', #25, .NOT_KNOWN. ) ;
#105 = DIRECTION ( 'NONE',  ( 4.275831445896958607E-31, 1.000000000000000000, 1.224646799147353207E-16 ) ) ;
#106 = VERTEX_POINT ( 'NONE', #180 ) ;
#107 = CIRCLE ( 'NONE', #57, 0.7499999999999888978 ) ;
#108 = ADVANCED_FACE ( 'NONE', ( #98 ), #225, .F. ) ;
#109 = DIRECTION ( 'NONE',  ( -4.172848212839012475E-31, -1.000000000000000000, -1.264902534566422168E-16 ) ) ;
#110 = DIRECTION ( 'NONE',  ( 3.491481338843133355E-15, -1.213121118695619454E-16, 1.000000000000000000 ) ) ;
#111 = CC_DESIGN_DATE_AND_TIME_ASSIGNMENT ( #128, #36, ( #92 ) ) ;
#112 = AXIS2_PLACEMENT_3D ( 'NONE', #49, #26, #105 ) ;
#113 = DATE_AND_TIME ( #163, #239 ) ;
#114 = APPROVAL_PERSON_ORGANIZATION ( #32, #145, #53 ) ;
#115 = FACE_BOUND ( 'NONE', #78, .T. ) ;
#116 = CARTESIAN_POINT ( 'NONE',  ( 1.047444401652939375E-14, 0.0000000000000000000, 2.999999999999998224 ) ) ;
#117 = DIRECTION ( 'NONE',  ( -4.294882511864260911E-31, -1.000000000000000000, -1.230103241304255752E-16 ) ) ;
#118 = DIRECTION ( 'NONE',  ( 0.0000000000000000000, 1.000000000000000000, 0.0000000000000000000 ) ) ;
#119 = ORIENTED_EDGE ( 'NONE', *, *, #194, .T. ) ;
#120 = CC_DESIGN_APPROVAL ( #171, ( #92 ) ) ;
#121 = APPLICATION_PROTOCOL_DEFINITION ( 'international standard', 'config_control_design', 1994, #157 ) ;
#122 = APPROVAL_STATUS ( 'not_yet_approved' ) ;
#123 = APPROVAL_PERSON_ORGANIZATION ( #3, #171, #33 ) ;
#124 = CARTESIAN_POINT ( 'NONE',  ( 1.745740669421541286E-16, -6.150516206521220055E-18, 0.04999999999999927419 ) ) ;
#125 = CC_DESIGN_PERSON_AND_ORGANIZATION_ASSIGNMENT ( #137, #196, ( #25 ) ) ;
#126 = EDGE_LOOP ( 'NONE', ( #119 ) ) ;
#127 = APPROVAL_STATUS ( 'not_yet_approved' ) ;
#128 = DATE_AND_TIME ( #223, #234 ) ;
#129 = ORIENTED_EDGE ( 'NONE', *, *, #216, .T. ) ;
#130 = PERSON_AND_ORGANIZATION_ROLE ( 'design_supplier' ) ;
#131 = APPROVAL_PERSON_ORGANIZATION ( #13, #99, #54 ) ;
#132 = ORIENTED_EDGE ( 'NONE', *, *, #228, .T. ) ;
#133 = FACE_OUTER_BOUND ( 'NONE', #168, .T. ) ;
#134 = DIRECTION ( 'NONE',  ( -3.491481338843133355E-15, 1.224646799147353207E-16, -1.000000000000000000 ) ) ;
#135 = CARTESIAN_POINT ( 'NONE',  ( 0.0000000000000000000, 0.0000000000000000000, 0.0000000000000000000 ) ) ;
#136 = FACE_OUTER_BOUND ( 'NONE', #187, .T. ) ;
#137 = PERSON_AND_ORGANIZATION ( #176, #4 ) ;
#138 = VERTEX_POINT ( 'NONE', #214 ) ;
#139 = SECURITY_CLASSIFICATION ( '', '', #218 ) ;
#140 = VERTEX_POINT ( 'NONE', #217 ) ;
#141 = DIRECTION ( 'NONE',  ( -3.491481338843133355E-15, 1.224646799147353207E-16, -1.000000000000000000 ) ) ;
#142 = CC_DESIGN_PERSON_AND_ORGANIZATION_ASSIGNMENT ( #219, #160, ( #139 ) ) ;
#143 = PERSON_AND_ORGANIZATION ( #176, #4 ) ;
#144 = APPROVAL_DATE_TIME ( #113, #145 ) ;
#145 = APPROVAL ( #127, 'UNSPECIFIED' ) ;
#146 = CALENDAR_DATE ( 2021, 17, 11 ) ;
#147 = ORIENTED_EDGE ( 'NONE', *, *, #94, .T. ) ;
#148 = PERSON_AND_ORGANIZATION_ROLE ( 'creator' ) ;
#149 = CC_DESIGN_PERSON_AND_ORGANIZATION_ASSIGNMENT ( #166, #148, ( #92 ) ) ;
#150 = CARTESIAN_POINT ( 'NONE',  ( 1.745740669421566678E-13, -6.123233995736766085E-15, 50.00000000000000000 ) ) ;
#151 = DIRECTION ( 'NONE',  ( -3.491481338843133355E-15, 1.224646799147353207E-16, -1.000000000000000000 ) ) ;
#152 = ADVANCED_FACE ( 'NONE', ( #82, #136 ), #178, .F. ) ;
#153 = CARTESIAN_POINT ( 'NONE',  ( -6.413747168845438786E-31, 0.0000000000000000000, -1.836970198721029934E-16 ) ) ;
#154 = CONICAL_SURFACE ( 'NONE', #237, 2.000000000000000888, 0.7853981633974540522 ) ;
#155 = DIRECTION ( 'NONE',  ( 3.491481338843133355E-15, -1.230103241304255752E-16, 1.000000000000000000 ) ) ;
#156 = MECHANICAL_CONTEXT ( 'NONE', #164, 'mechanical' ) ;
#157 = APPLICATION_CONTEXT ( 'configuration controlled 3d designs of mechanical parts and assemblies' ) ;
#158 = DIRECTION ( 'NONE',  ( -4.275831445896958607E-31, -1.000000000000000000, -1.224646799147353207E-16 ) ) ;
#159 = AXIS2_PLACEMENT_3D ( 'NONE', #192, #103, #21 ) ;
#160 = PERSON_AND_ORGANIZATION_ROLE ( 'classification_officer' ) ;
#161 = LOCAL_TIME ( 10, 32, 2.000000000000000000, #91 ) ;
#162 = DESIGN_CONTEXT ( 'detailed design', #157, 'design' ) ;
#163 = CALENDAR_DATE ( 2021, 17, 11 ) ;
#164 = APPLICATION_CONTEXT ( 'configuration controlled 3d designs of mechanical parts and assemblies' ) ;
#165 = CONICAL_SURFACE ( 'NONE', #190, 0.7499999999999997780, 0.7853981633974516097 ) ;
#166 = PERSON_AND_ORGANIZATION ( #176, #4 ) ;
#167 = EDGE_LOOP ( 'NONE', ( #76 ) ) ;
#168 = EDGE_LOOP ( 'NONE', ( #55 ) ) ;
#169 = CARTESIAN_POINT ( 'NONE',  ( 1.047444401652939691E-14, 1.499759782661857060E-32, 2.999999999999999112 ) ) ;
#170 = FACE_OUTER_BOUND ( 'NONE', #30, .T. ) ;
#171 = APPROVAL ( #122, 'UNSPECIFIED' ) ;
#172 = ORIENTED_EDGE ( 'NONE', *, *, #28, .T. ) ;
#173 = LOCAL_TIME ( 10, 32, 2.000000000000000000, #181 ) ;
#174 = DIRECTION ( 'NONE',  ( 3.491481338843133355E-15, -1.224646799147353207E-16, 1.000000000000000000 ) ) ;
#175 = CARTESIAN_POINT ( 'NONE',  ( 2.546648434662941312E-14, 2.000000000000000000, 7.293891009329430908 ) ) ;
#176 = PERSON ( 'UNSPECIFIED', 'UNSPECIFIED', 'UNSPECIFIED', ('UNSPECIFIED'), ('UNSPECIFIED'), ('UNSPECIFIED') ) ;
#177 = MANIFOLD_SOLID_BREP ( 'Corps-Déplacer/Copier1[1]', #45 ) ;
#178 = TOROIDAL_SURFACE ( 'NONE', #9, 8.749999999999991118, 8.000000000000000000 ) ;
#179 = VERTEX_POINT ( 'NONE', #6 ) ;
#180 = CARTESIAN_POINT ( 'NONE',  ( 1.745740669421566678E-13, 1.699999999999996625, 50.00000000000000000 ) ) ;
#181 = COORDINATED_UNIVERSAL_TIME_OFFSET ( 1, 0, .AHEAD. ) ;
#182 = CIRCLE ( 'NONE', #79, 1.700000000000002620 ) ;
#183 = APPROVAL_DATE_TIME ( #14, #171 ) ;
#184 = ADVANCED_FACE ( 'NONE', ( #240 ), #40, .T. ) ;
#185 = AXIS2_PLACEMENT_3D ( 'NONE', #81, #151, #191 ) ;
#186 = ADVANCED_FACE ( 'NONE', ( #101, #170 ), #62, .T. ) ;
#187 = EDGE_LOOP ( 'NONE', ( #242 ) ) ;
#188 = FACE_OUTER_BOUND ( 'NONE', #96, .T. ) ;
#189 = DIRECTION ( 'NONE',  ( -4.235589747682261318E-31, -1.000000000000000000, -1.213121118695619207E-16 ) ) ;
#190 = AXIS2_PLACEMENT_3D ( 'NONE', #20, #16, #80 ) ;
#191 = DIRECTION ( 'NONE',  ( 4.275831445896958607E-31, 1.000000000000000000, 1.224646799147353207E-16 ) ) ;
#192 = CARTESIAN_POINT ( 'NONE',  ( 1.047444401652939691E-14, -3.639363356086857376E-16, 2.999999999999999112 ) ) ;
#193 = ORIENTED_EDGE ( 'NONE', *, *, #194, .F. ) ;
#194 = EDGE_CURVE ( 'NONE', #179, #179, #210, .T. ) ;
#195 = CIRCLE ( 'NONE', #88, 2.000000000000000444 ) ;
#196 = PERSON_AND_ORGANIZATION_ROLE ( 'design_owner' ) ;
#197 = CARTESIAN_POINT ( 'NONE',  ( 1.735266225405037719E-13, -6.086494591762346014E-15, 49.70000000000000995 ) ) ;
#198 = CARTESIAN_POINT ( 'NONE',  ( 1.047444401652939691E-14, 1.499759782661857060E-32, 2.999999999999999112 ) ) ;
#199 = AXIS2_PLACEMENT_3D ( 'NONE', #198, #200, #158 ) ;
#200 = DIRECTION ( 'NONE',  ( 3.491481338843133355E-15, -1.224646799147353207E-16, 1.000000000000000000 ) ) ;
#201 = CARTESIAN_POINT ( 'NONE',  ( 1.745740669421538328E-16, -0.7499999999999997780, 0.04999999999999918399 ) ) ;
#202 = ORIENTED_EDGE ( 'NONE', *, *, #68, .T. ) ;
#203 = ADVANCED_FACE ( 'NONE', ( #24 ), #29, .F. ) ;
#204 = SHAPE_DEFINITION_REPRESENTATION ( #235, #12 ) ;
#205 = COORDINATED_UNIVERSAL_TIME_OFFSET ( 1, 0, .AHEAD. ) ;
#206 = LOCAL_TIME ( 10, 32, 2.000000000000000000, #73 ) ;
#207 = CARTESIAN_POINT ( 'NONE',  ( 1.047444401652939691E-14, -3.639363356086857376E-16, 2.999999999999999112 ) ) ;
#208 = DIRECTION ( 'NONE',  ( -4.275831445896958607E-31, -1.000000000000000000, -1.224646799147353207E-16 ) ) ;
#209 = DIRECTION ( 'NONE',  ( 3.491481338843133355E-15, -1.213121118695619454E-16, 1.000000000000000000 ) ) ;
#210 = CIRCLE ( 'NONE', #213, 2.000000000000000888 ) ;
#211 = ORIENTED_EDGE ( 'NONE', *, *, #94, .F. ) ;
#212 = CC_DESIGN_PERSON_AND_ORGANIZATION_ASSIGNMENT ( #236, #130, ( #104 ) ) ;
#213 = AXIS2_PLACEMENT_3D ( 'NONE', #197, #141, #230 ) ;
#214 = CARTESIAN_POINT ( 'NONE',  ( 1.047444401652939691E-14, -0.7499999999999891198, 2.999999999999999112 ) ) ;
#215 = VERTEX_POINT ( 'NONE', #201 ) ;
#216 = EDGE_CURVE ( 'NONE', #5, #5, #195, .T. ) ;
#217 = CARTESIAN_POINT ( 'NONE',  ( -6.173730876178579194E-31, -0.7000000000000000666, -1.768226800325440548E-16 ) ) ;
#218 = SECURITY_CLASSIFICATION_LEVEL ( 'unclassified' ) ;
#219 = PERSON_AND_ORGANIZATION ( #176, #4 ) ;
#220 =( GEOMETRIC_REPRESENTATION_CONTEXT ( 3 ) GLOBAL_UNCERTAINTY_ASSIGNED_CONTEXT ( ( #89 ) ) GLOBAL_UNIT_ASSIGNED_CONTEXT ( ( #44, #2, #47 ) ) REPRESENTATION_CONTEXT ( 'NONE', 'WORKASPACE' ) );
#221 = CIRCLE ( 'NONE', #63, 0.7000000000000000666 ) ;
#222 = ADVANCED_FACE ( 'NONE', ( #65 ), #8, .T. ) ;
#223 = CALENDAR_DATE ( 2021, 17, 11 ) ;
#224 = DIRECTION ( 'NONE',  ( 0.0000000000000000000, 1.000000000000000000, 0.0000000000000000000 ) ) ;
#225 = PLANE ( 'NONE',  #71 ) ;
#226 = DIRECTION ( 'NONE',  ( -3.491481338843133355E-15, 1.224646799147353207E-16, -1.000000000000000000 ) ) ;
#227 = DIRECTION ( 'NONE',  ( -4.314859283214379480E-31, -1.000000000000000000, -1.213121118695619454E-16 ) ) ;
#228 = EDGE_CURVE ( 'NONE', #215, #215, #15, .T. ) ;
#229 = CYLINDRICAL_SURFACE ( 'NONE', #18, 0.7499999999999895639 ) ;
#230 = DIRECTION ( 'NONE',  ( 0.0000000000000000000, 1.000000000000000000, 0.0000000000000000000 ) ) ;
#231 = DIRECTION ( 'NONE',  ( 4.275831445896958607E-31, 1.000000000000000000, 1.224646799147353207E-16 ) ) ;
#232 = DIRECTION ( 'NONE',  ( 1.000000000000000000, 0.0000000000000000000, 0.0000000000000000000 ) ) ;
#233 = DIRECTION ( 'NONE',  ( 0.0000000000000000000, 0.0000000000000000000, 1.000000000000000000 ) ) ;
#234 = LOCAL_TIME ( 10, 32, 2.000000000000000000, #10 ) ;
#235 = PRODUCT_DEFINITION_SHAPE ( 'NONE', 'NONE',  #92 ) ;
#236 = PERSON_AND_ORGANIZATION ( #176, #4 ) ;
#237 = AXIS2_PLACEMENT_3D ( 'NONE', #102, #226, #118 ) ;
#238 = DIRECTION ( 'NONE',  ( 3.491481338843133355E-15, -1.213121118695619454E-16, 1.000000000000000000 ) ) ;
#239 = LOCAL_TIME ( 10, 32, 2.000000000000000000, #205 ) ;
#240 = FACE_OUTER_BOUND ( 'NONE', #58, .T. ) ;
#241 = FACE_OUTER_BOUND ( 'NONE', #51, .T. ) ;
#242 = ORIENTED_EDGE ( 'NONE', *, *, #34, .T. ) ;
#243 = CIRCLE ( 'NONE', #159, 0.7499999999999888978 ) ;
ENDSEC;
END-ISO-10303-21;
