ISO-10303-21;
HEADER;
FILE_DESCRIPTION (( 'STEP AP203' ),
    '1' );
FILE_NAME ('639.step',
    '2021-12-06T13:00:03',
    ( '' ),
    ( '' ),
    'SwSTEP 2.0',
    'SolidWorks 2019',
    '' );
FILE_SCHEMA (( 'CONFIG_CONTROL_DESIGN' ));
ENDSEC;

DATA;
#1 = PERSON_AND_ORGANIZATION ( #131, #66 ) ;
#2 = CALENDAR_DATE ( 2021, 6, 12 ) ;
#3 = PERSON_AND_ORGANIZATION ( #131, #66 ) ;
#4 = AXIS2_PLACEMENT_3D ( 'NONE', #64, #153, #168 ) ;
#5 = EDGE_LOOP ( 'NONE', ( #75 ) ) ;
#6 = EDGE_CURVE ( 'NONE', #134, #134, #113, .T. ) ;
#7 = LOCAL_TIME ( 14, 0, 3.000000000000000000, #83 ) ;
#8 = CARTESIAN_POINT ( 'NONE',  ( 1.396592535537247031E-15, -4.898587196589393354E-17, 0.3999999999999981903 ) ) ;
#9 = COORDINATED_UNIVERSAL_TIME_OFFSET ( 1, 0, .AHEAD. ) ;
#10 = CIRCLE ( 'NONE', #120, 15.00000000000000000 ) ;
#11 = LOCAL_TIME ( 14, 0, 3.000000000000000000, #53 ) ;
#12 = PLANE ( 'NONE',  #4 ) ;
#13 = VERTEX_POINT ( 'NONE', #79 ) ;
#14 = ADVANCED_BREP_SHAPE_REPRESENTATION ( '639', ( #68, #140 ), #169 ) ;
#15 = CARTESIAN_POINT ( 'NONE',  ( 1.396592535537251764E-15, -4.898587196589409994E-17, 0.3999999999999995226 ) ) ;
#16 = CC_DESIGN_PERSON_AND_ORGANIZATION_ASSIGNMENT ( #18, #44, ( #57 ) ) ;
#17 = APPROVAL_PERSON_ORGANIZATION ( #93, #146, #130 ) ;
#18 = PERSON_AND_ORGANIZATION ( #131, #66 ) ;
#19 = DATE_AND_TIME ( #147, #11 ) ;
#20 = ADVANCED_FACE ( 'NONE', ( #139, #22 ), #25, .F. ) ;
#21 = EDGE_LOOP ( 'NONE', ( #110 ) ) ;
#22 = FACE_OUTER_BOUND ( 'NONE', #46, .T. ) ;
#23 = EDGE_CURVE ( 'NONE', #155, #155, #10, .T. ) ;
#24 = ORIENTED_EDGE ( 'NONE', *, *, #23, .T. ) ;
#25 = CYLINDRICAL_SURFACE ( 'NONE', #98, 4.000000000000000000 ) ;
#26 = CC_DESIGN_APPROVAL ( #146, ( #116 ) ) ;
#27 = FACE_OUTER_BOUND ( 'NONE', #5, .T. ) ;
#28 = CARTESIAN_POINT ( 'NONE',  ( 0.0000000000000000000, 0.0000000000000000000, 0.0000000000000000000 ) ) ;
#29 = CC_DESIGN_PERSON_AND_ORGANIZATION_ASSIGNMENT ( #1, #96, ( #31 ) ) ;
#30 = APPROVAL_ROLE ( '' ) ;
#31 = SECURITY_CLASSIFICATION ( '', '', #148 ) ;
#32 = LOCAL_TIME ( 14, 0, 3.000000000000000000, #50 ) ;
#33 = APPROVAL ( #67, 'UNSPECIFIED' ) ;
#34 = EDGE_LOOP ( 'NONE', ( #37 ) ) ;
#35 = DIRECTION ( 'NONE',  ( 4.237045877651918877E-31, 1.000000000000000000, 1.228762462150238276E-16 ) ) ;
#36 = PRODUCT_RELATED_PRODUCT_CATEGORY ( 'detail', '', ( #86 ) ) ;
#37 = ORIENTED_EDGE ( 'NONE', *, *, #77, .F. ) ;
#38 = DIRECTION ( 'NONE',  ( 4.275831445896962110E-31, 1.000000000000000000, 1.224646799147353947E-16 ) ) ;
#39 = APPROVAL_DATE_TIME ( #40, #146 ) ;
#40 = DATE_AND_TIME ( #49, #145 ) ;
#41 = APPROVAL_STATUS ( 'not_yet_approved' ) ;
#42 = APPLICATION_PROTOCOL_DEFINITION ( 'international standard', 'config_control_design', 1994, #129 ) ;
#43 = PERSON_AND_ORGANIZATION_ROLE ( 'design_owner' ) ;
#44 = PERSON_AND_ORGANIZATION_ROLE ( 'creator' ) ;
#45 = ORIENTED_EDGE ( 'NONE', *, *, #6, .F. ) ;
#46 = EDGE_LOOP ( 'NONE', ( #162 ) ) ;
#47 = ORIENTED_EDGE ( 'NONE', *, *, #112, .T. ) ;
#48 = EDGE_LOOP ( 'NONE', ( #151 ) ) ;
#49 = CALENDAR_DATE ( 2021, 6, 12 ) ;
#50 = COORDINATED_UNIVERSAL_TIME_OFFSET ( 1, 0, .AHEAD. ) ;
#51 = PERSON_AND_ORGANIZATION ( #131, #66 ) ;
#52 =( LENGTH_UNIT ( ) NAMED_UNIT ( * ) SI_UNIT ( .MILLI., .METRE. ) );
#53 = COORDINATED_UNIVERSAL_TIME_OFFSET ( 1, 0, .AHEAD. ) ;
#54 = APPROVAL_ROLE ( '' ) ;
#55 = CLOSED_SHELL ( 'NONE', ( #84, #95, #122, #20 ) ) ;
#56 = APPROVAL_DATE_TIME ( #123, #61 ) ;
#57 = PRODUCT_DEFINITION_FORMATION_WITH_SPECIFIED_SOURCE ( 'ANY', '', #86, .NOT_KNOWN. ) ;
#58 = PRODUCT_DEFINITION_SHAPE ( 'NONE', 'NONE',  #116 ) ;
#59 = EDGE_LOOP ( 'NONE', ( #24 ) ) ;
#60 = DIRECTION ( 'NONE',  ( -3.491481338843133355E-15, 1.224646799147353947E-16, -1.000000000000000000 ) ) ;
#61 = APPROVAL ( #41, 'UNSPECIFIED' ) ;
#62 = CARTESIAN_POINT ( 'NONE',  ( 1.396592535537253539E-15, 4.000000000000000000, 0.4000000000000000222 ) ) ;
#63 = APPLICATION_CONTEXT ( 'configuration controlled 3d designs of mechanical parts and assemblies' ) ;
#64 = CARTESIAN_POINT ( 'NONE',  ( 1.396592535537251173E-15, 4.000000000000000000, 0.3999999999999993561 ) ) ;
#65 = DIRECTION ( 'NONE',  ( 4.333342374871280669E-31, 1.000000000000000000, 1.219727444046192488E-16 ) ) ;
#66 = ORGANIZATION ( 'UNSPECIFIED', 'UNSPECIFIED', '' ) ;
#67 = APPROVAL_STATUS ( 'not_yet_approved' ) ;
#68 = MANIFOLD_SOLID_BREP ( 'Corps-Déplacer/Copier1', #55 ) ;
#69 = CIRCLE ( 'NONE', #156, 4.000000000000000000 ) ;
#70 = APPROVAL_PERSON_ORGANIZATION ( #51, #61, #30 ) ;
#71 = EDGE_LOOP ( 'NONE', ( #45 ) ) ;
#72 = CC_DESIGN_PERSON_AND_ORGANIZATION_ASSIGNMENT ( #106, #43, ( #86 ) ) ;
#73 = CARTESIAN_POINT ( 'NONE',  ( -1.710332578358784143E-30, 5.999039130647437000E-32, -4.898587196589415787E-16 ) ) ;
#74 = EDGE_LOOP ( 'NONE', ( #47 ) ) ;
#75 = ORIENTED_EDGE ( 'NONE', *, *, #23, .F. ) ;
#76 = CARTESIAN_POINT ( 'NONE',  ( 0.0000000000000000000, 0.0000000000000000000, 0.0000000000000000000 ) ) ;
#77 = EDGE_CURVE ( 'NONE', #13, #13, #136, .T. ) ;
#78 = APPROVAL_STATUS ( 'not_yet_approved' ) ;
#79 = CARTESIAN_POINT ( 'NONE',  ( 1.396592535537253342E-15, 15.00000000000000000, 0.4000000000000000222 ) ) ;
#80 = CARTESIAN_POINT ( 'NONE',  ( 0.0000000000000000000, 0.0000000000000000000, 0.0000000000000000000 ) ) ;
#81 = APPROVAL_PERSON_ORGANIZATION ( #124, #33, #54 ) ;
#82 = FACE_OUTER_BOUND ( 'NONE', #34, .T. ) ;
#83 = COORDINATED_UNIVERSAL_TIME_OFFSET ( 1, 0, .AHEAD. ) ;
#84 = ADVANCED_FACE ( 'NONE', ( #88, #152 ), #138, .T. ) ;
#85 = LOCAL_TIME ( 14, 0, 3.000000000000000000, #94 ) ;
#86 = PRODUCT ( '639', '639', '', ( #132 ) ) ;
#87 = DIRECTION ( 'NONE',  ( 4.275831445896961234E-31, 1.000000000000000000, 1.224646799147353947E-16 ) ) ;
#88 = FACE_OUTER_BOUND ( 'NONE', #59, .T. ) ;
#89 = DIRECTION ( 'NONE',  ( 4.275831445896961234E-31, 1.000000000000000000, 1.224646799147353947E-16 ) ) ;
#90 = PERSON_AND_ORGANIZATION_ROLE ( 'creator' ) ;
#91 = DATE_AND_TIME ( #102, #32 ) ;
#92 = DIRECTION ( 'NONE',  ( -3.491481338843133355E-15, 1.224646799147353947E-16, -1.000000000000000000 ) ) ;
#93 = PERSON_AND_ORGANIZATION ( #131, #66 ) ;
#94 = COORDINATED_UNIVERSAL_TIME_OFFSET ( 1, 0, .AHEAD. ) ;
#95 = ADVANCED_FACE ( 'NONE', ( #165, #27 ), #119, .T. ) ;
#96 = PERSON_AND_ORGANIZATION_ROLE ( 'classification_officer' ) ;
#97 = SHAPE_DEFINITION_REPRESENTATION ( #58, #14 ) ;
#98 = AXIS2_PLACEMENT_3D ( 'NONE', #76, #128, #89 ) ;
#99 = DIRECTION ( 'NONE',  ( 4.275831445896961234E-31, 1.000000000000000000, 1.224646799147353947E-16 ) ) ;
#100 = DIRECTION ( 'NONE',  ( -3.491481338843133355E-15, 1.224646799147353947E-16, -1.000000000000000000 ) ) ;
#101 = DIRECTION ( 'NONE',  ( -3.491481338843133355E-15, 1.224646799147353947E-16, -1.000000000000000000 ) ) ;
#102 = CALENDAR_DATE ( 2021, 6, 12 ) ;
#103 = FACE_BOUND ( 'NONE', #74, .T. ) ;
#104 = AXIS2_PLACEMENT_3D ( 'NONE', #111, #164, #38 ) ;
#105 = CC_DESIGN_DATE_AND_TIME_ASSIGNMENT ( #19, #107, ( #31 ) ) ;
#106 = PERSON_AND_ORGANIZATION ( #131, #66 ) ;
#107 = DATE_TIME_ROLE ( 'classification_date' ) ;
#108 = APPROVAL_DATE_TIME ( #161, #33 ) ;
#109 = CC_DESIGN_APPROVAL ( #33, ( #31 ) ) ;
#110 = ORIENTED_EDGE ( 'NONE', *, *, #77, .T. ) ;
#111 = CARTESIAN_POINT ( 'NONE',  ( -2.351707295243328372E-30, 4.000000000000000000, -6.735557395310445967E-16 ) ) ;
#112 = EDGE_CURVE ( 'NONE', #118, #118, #69, .T. ) ;
#113 = CIRCLE ( 'NONE', #150, 4.000000000000000000 ) ;
#114 = CC_DESIGN_SECURITY_CLASSIFICATION ( #31, ( #57 ) ) ;
#115 = DIRECTION ( 'NONE',  ( 0.0000000000000000000, 0.0000000000000000000, 1.000000000000000000 ) ) ;
#116 = PRODUCT_DEFINITION ( 'UNKNOWN', '', #57, #125 ) ;
#117 = APPLICATION_PROTOCOL_DEFINITION ( 'international standard', 'config_control_design', 1994, #63 ) ;
#118 = VERTEX_POINT ( 'NONE', #62 ) ;
#119 = CYLINDRICAL_SURFACE ( 'NONE', #149, 15.00000000000000000 ) ;
#120 = AXIS2_PLACEMENT_3D ( 'NONE', #126, #100, #87 ) ;
#121 = CALENDAR_DATE ( 2021, 6, 12 ) ;
#122 = ADVANCED_FACE ( 'NONE', ( #103, #82 ), #12, .T. ) ;
#123 = DATE_AND_TIME ( #2, #85 ) ;
#124 = PERSON_AND_ORGANIZATION ( #131, #66 ) ;
#125 = DESIGN_CONTEXT ( 'detailed design', #63, 'design' ) ;
#126 = CARTESIAN_POINT ( 'NONE',  ( -6.413747168845442289E-30, 2.249639673992789258E-31, -1.836970198721030772E-15 ) ) ;
#127 = AXIS2_PLACEMENT_3D ( 'NONE', #8, #60, #35 ) ;
#128 = DIRECTION ( 'NONE',  ( -3.491481338843133355E-15, 1.224646799147353947E-16, -1.000000000000000000 ) ) ;
#129 = APPLICATION_CONTEXT ( 'configuration controlled 3d designs of mechanical parts and assemblies' ) ;
#130 = APPROVAL_ROLE ( '' ) ;
#131 = PERSON ( 'UNSPECIFIED', 'UNSPECIFIED', 'UNSPECIFIED', ('UNSPECIFIED'), ('UNSPECIFIED'), ('UNSPECIFIED') ) ;
#132 = MECHANICAL_CONTEXT ( 'NONE', #129, 'mechanical' ) ;
#133 = DIRECTION ( 'NONE',  ( 4.275831445896961234E-31, 1.000000000000000000, 1.224646799147353947E-16 ) ) ;
#134 = VERTEX_POINT ( 'NONE', #141 ) ;
#135 = DIRECTION ( 'NONE',  ( 1.000000000000000000, 0.0000000000000000000, 0.0000000000000000000 ) ) ;
#136 = CIRCLE ( 'NONE', #127, 15.00000000000000000 ) ;
#137 = DIRECTION ( 'NONE',  ( -3.491481338843133355E-15, 1.224646799147353947E-16, -1.000000000000000000 ) ) ;
#138 = PLANE ( 'NONE',  #104 ) ;
#139 = FACE_OUTER_BOUND ( 'NONE', #48, .T. ) ;
#140 = AXIS2_PLACEMENT_3D ( 'NONE', #28, #115, #135 ) ;
#141 = CARTESIAN_POINT ( 'NONE',  ( 3.421138828918010427E-46, 4.000000000000000000, 0.0000000000000000000 ) ) ;
#142 = DATE_TIME_ROLE ( 'creation_date' ) ;
#143 = CC_DESIGN_PERSON_AND_ORGANIZATION_ASSIGNMENT ( #167, #90, ( #116 ) ) ;
#144 = CARTESIAN_POINT ( 'NONE',  ( 0.0000000000000000000, 15.00000000000000000, 0.0000000000000000000 ) ) ;
#145 = LOCAL_TIME ( 14, 0, 3.000000000000000000, #9 ) ;
#146 = APPROVAL ( #78, 'UNSPECIFIED' ) ;
#147 = CALENDAR_DATE ( 2021, 6, 12 ) ;
#148 = SECURITY_CLASSIFICATION_LEVEL ( 'unclassified' ) ;
#149 = AXIS2_PLACEMENT_3D ( 'NONE', #80, #101, #133 ) ;
#150 = AXIS2_PLACEMENT_3D ( 'NONE', #73, #137, #99 ) ;
#151 = ORIENTED_EDGE ( 'NONE', *, *, #6, .T. ) ;
#152 = FACE_BOUND ( 'NONE', #71, .T. ) ;
#153 = DIRECTION ( 'NONE',  ( 3.491481338843133355E-15, -1.224646799147353947E-16, 1.000000000000000000 ) ) ;
#154 =( NAMED_UNIT ( * ) PLANE_ANGLE_UNIT ( ) SI_UNIT ( $, .RADIAN. ) );
#155 = VERTEX_POINT ( 'NONE', #144 ) ;
#156 = AXIS2_PLACEMENT_3D ( 'NONE', #15, #92, #65 ) ;
#157 =( NAMED_UNIT ( * ) SI_UNIT ( $, .STERADIAN. ) SOLID_ANGLE_UNIT ( ) );
#158 = CC_DESIGN_DATE_AND_TIME_ASSIGNMENT ( #91, #142, ( #116 ) ) ;
#159 = CC_DESIGN_PERSON_AND_ORGANIZATION_ASSIGNMENT ( #3, #160, ( #57 ) ) ;
#160 = PERSON_AND_ORGANIZATION_ROLE ( 'design_supplier' ) ;
#161 = DATE_AND_TIME ( #121, #7 ) ;
#162 = ORIENTED_EDGE ( 'NONE', *, *, #112, .F. ) ;
#163 = UNCERTAINTY_MEASURE_WITH_UNIT (LENGTH_MEASURE( 1.000000000000000082E-05 ), #52, 'distance_accuracy_value', 'NONE');
#164 = DIRECTION ( 'NONE',  ( -3.491481338843133355E-15, 1.224646799147353947E-16, -1.000000000000000000 ) ) ;
#165 = FACE_OUTER_BOUND ( 'NONE', #21, .T. ) ;
#166 = CC_DESIGN_APPROVAL ( #61, ( #57 ) ) ;
#167 = PERSON_AND_ORGANIZATION ( #131, #66 ) ;
#168 = DIRECTION ( 'NONE',  ( -4.275831445896962110E-31, -1.000000000000000000, -1.224646799147353947E-16 ) ) ;
#169 =( GEOMETRIC_REPRESENTATION_CONTEXT ( 3 ) GLOBAL_UNCERTAINTY_ASSIGNED_CONTEXT ( ( #163 ) ) GLOBAL_UNIT_ASSIGNED_CONTEXT ( ( #52, #154, #157 ) ) REPRESENTATION_CONTEXT ( 'NONE', 'WORKASPACE' ) );
ENDSEC;
END-ISO-10303-21;
