ISO-10303-21;
HEADER;
FILE_DESCRIPTION (( 'STEP AP203' ),
    '1' );
FILE_NAME ('63847.step',
    '2021-11-09T08:46:35',
    ( '' ),
    ( '' ),
    'SwSTEP 2.0',
    'SolidWorks 2019',
    '' );
FILE_SCHEMA (( 'CONFIG_CONTROL_DESIGN' ));
ENDSEC;

DATA;
#1 = DIRECTION ( 'NONE',  ( 3.491481338843133355E-15, -1.224646799147353207E-16, 1.000000000000000000 ) ) ;
#2 = CARTESIAN_POINT ( 'NONE',  ( 4.189777606611759395E-14, -1.483132216432288891E-15, 11.99999999999999822 ) ) ;
#3 = CARTESIAN_POINT ( 'NONE',  ( 4.189777606611759395E-14, -1.749999999999996003, 11.99999999999999822 ) ) ;
#4 = CONICAL_SURFACE ( 'NONE', #219, 1.600000000000000089, 0.7853981633974512766 ) ;
#5 = CC_DESIGN_DATE_AND_TIME_ASSIGNMENT ( #40, #74, ( #157 ) ) ;
#6 = PERSON_AND_ORGANIZATION_ROLE ( 'creator' ) ;
#7 = CIRCLE ( 'NONE', #126, 1.749999999999993783 ) ;
#8 = ORIENTED_EDGE ( 'NONE', *, *, #121, .T. ) ;
#9 = AXIS2_PLACEMENT_3D ( 'NONE', #125, #82, #221 ) ;
#10 = ADVANCED_FACE ( 'NONE', ( #51 ), #143, .F. ) ;
#11 = ORIENTED_EDGE ( 'NONE', *, *, #173, .T. ) ;
#12 = DIRECTION ( 'NONE',  ( -4.315273713925326938E-31, -1.000000000000000000, -1.235943513693574240E-16 ) ) ;
#13 = CYLINDRICAL_SURFACE ( 'NONE', #209, 1.749999999999994227 ) ;
#14 = CARTESIAN_POINT ( 'NONE',  ( -4.275743254511121536E-31, 0.0000000000000000000, -1.224621540130541035E-16 ) ) ;
#15 = CC_DESIGN_APPROVAL ( #52, ( #144 ) ) ;
#16 = VERTEX_POINT ( 'NONE', #165 ) ;
#17 = DIRECTION ( 'NONE',  ( 0.0000000000000000000, 1.000000000000000000, 0.0000000000000000000 ) ) ;
#18 = VERTEX_POINT ( 'NONE', #134 ) ;
#19 = DATE_AND_TIME ( #210, #95 ) ;
#20 = EDGE_CURVE ( 'NONE', #16, #16, #63, .T. ) ;
#21 = AXIS2_PLACEMENT_3D ( 'NONE', #124, #186, #83 ) ;
#22 = APPLICATION_PROTOCOL_DEFINITION ( 'international standard', 'config_control_design', 1994, #138 ) ;
#23 = PERSON_AND_ORGANIZATION ( #104, #78 ) ;
#24 = PERSON_AND_ORGANIZATION_ROLE ( 'classification_officer' ) ;
#25 = ORIENTED_EDGE ( 'NONE', *, *, #75, .T. ) ;
#26 = ORIENTED_EDGE ( 'NONE', *, *, #20, .F. ) ;
#27 = EDGE_CURVE ( 'NONE', #18, #18, #42, .T. ) ;
#28 = AXIS2_PLACEMENT_3D ( 'NONE', #171, #1, #147 ) ;
#29 = EDGE_LOOP ( 'NONE', ( #47 ) ) ;
#30 = EDGE_LOOP ( 'NONE', ( #8 ) ) ;
#31 = CARTESIAN_POINT ( 'NONE',  ( 0.0000000000000000000, 0.0000000000000000000, 0.0000000000000000000 ) ) ;
#32 = AXIS2_PLACEMENT_3D ( 'NONE', #2, #145, #128 ) ;
#33 = DIRECTION ( 'NONE',  ( 3.491481338843133355E-15, -1.235943513693574240E-16, 1.000000000000000000 ) ) ;
#34 = CARTESIAN_POINT ( 'NONE',  ( 4.882596956346897969E-14, -1.728382154314032096E-15, 13.98431348329845747 ) ) ;
#35 = ADVANCED_FACE ( 'NONE', ( #53, #87 ), #213, .F. ) ;
#36 = DIRECTION ( 'NONE',  ( 3.491481338843133355E-15, -1.224646799147353207E-16, 1.000000000000000000 ) ) ;
#37 = VERTEX_POINT ( 'NONE', #3 ) ;
#38 = COORDINATED_UNIVERSAL_TIME_OFFSET ( 1, 0, .AHEAD. ) ;
#39 = DIRECTION ( 'NONE',  ( 0.0000000000000000000, 0.0000000000000000000, 1.000000000000000000 ) ) ;
#40 = DATE_AND_TIME ( #43, #203 ) ;
#41 = CARTESIAN_POINT ( 'NONE',  ( 0.0000000000000000000, 0.0000000000000000000, 0.0000000000000000000 ) ) ;
#42 = CIRCLE ( 'NONE', #9, 2.000000000000000000 ) ;
#43 = CALENDAR_DATE ( 2021, 9, 11 ) ;
#44 = PERSON_AND_ORGANIZATION_ROLE ( 'design_owner' ) ;
#45 = EDGE_LOOP ( 'NONE', ( #185 ) ) ;
#46 = ADVANCED_FACE ( 'NONE', ( #68, #204 ), #4, .T. ) ;
#47 = ORIENTED_EDGE ( 'NONE', *, *, #133, .T. ) ;
#48 = FACE_OUTER_BOUND ( 'NONE', #218, .T. ) ;
#49 = DIRECTION ( 'NONE',  ( 3.491481338843133355E-15, -1.235943513693574240E-16, 1.000000000000000000 ) ) ;
#50 = AXIS2_PLACEMENT_3D ( 'NONE', #160, #85, #174 ) ;
#51 = FACE_OUTER_BOUND ( 'NONE', #122, .T. ) ;
#52 = APPROVAL ( #116, 'UNSPECIFIED' ) ;
#53 = FACE_OUTER_BOUND ( 'NONE', #45, .T. ) ;
#54 = DIRECTION ( 'NONE',  ( -4.275831445896958607E-31, -1.000000000000000000, -1.224646799147353207E-16 ) ) ;
#55 =( NAMED_UNIT ( * ) PLANE_ANGLE_UNIT ( ) SI_UNIT ( $, .RADIAN. ) );
#56 = APPROVAL_DATE_TIME ( #89, #52 ) ;
#57 = DIRECTION ( 'NONE',  ( 1.000000000000000000, 0.0000000000000000000, 0.0000000000000000000 ) ) ;
#58 = APPROVAL_ROLE ( '' ) ;
#59 = LOCAL_TIME ( 9, 46, 35.00000000000000000, #180 ) ;
#60 = PERSON_AND_ORGANIZATION_ROLE ( 'design_supplier' ) ;
#61 = APPROVAL_ROLE ( '' ) ;
#62 = APPROVAL_DATE_TIME ( #164, #64 ) ;
#63 = CIRCLE ( 'NONE', #32, 1.749999999999994449 ) ;
#64 = APPROVAL ( #179, 'UNSPECIFIED' ) ;
#65 = ADVANCED_BREP_SHAPE_REPRESENTATION ( '63847', ( #153, #217, #98 ), #178 ) ;
#66 = ORIENTED_EDGE ( 'NONE', *, *, #121, .F. ) ;
#67 = PLANE ( 'NONE',  #21 ) ;
#68 = FACE_OUTER_BOUND ( 'NONE', #199, .T. ) ;
#69 = AXIS2_PLACEMENT_3D ( 'NONE', #34, #33, #88 ) ;
#70 = CC_DESIGN_PERSON_AND_ORGANIZATION_ASSIGNMENT ( #23, #60, ( #107 ) ) ;
#71 = DIRECTION ( 'NONE',  ( -3.491481338843133355E-15, 1.224646799147353207E-16, -1.000000000000000000 ) ) ;
#72 = DIRECTION ( 'NONE',  ( 0.0000000000000000000, 1.000000000000000000, 0.0000000000000000000 ) ) ;
#73 = CARTESIAN_POINT ( 'NONE',  ( 4.882596956346897969E-14, -2.000000000000000000, 13.98431348329845747 ) ) ;
#74 = DATE_TIME_ROLE ( 'creation_date' ) ;
#75 = EDGE_CURVE ( 'NONE', #131, #131, #7, .T. ) ;
#76 = CIRCLE ( 'NONE', #69, 1.999999999999998224 ) ;
#77 = PERSON_AND_ORGANIZATION ( #104, #78 ) ;
#78 = ORGANIZATION ( 'UNSPECIFIED', 'UNSPECIFIED', '' ) ;
#79 = AXIS2_PLACEMENT_3D ( 'NONE', #190, #170, #17 ) ;
#80 = EDGE_LOOP ( 'NONE', ( #169 ) ) ;
#81 = AXIS2_PLACEMENT_3D ( 'NONE', #103, #161, #159 ) ;
#82 = DIRECTION ( 'NONE',  ( -3.491481338843133355E-15, 1.224646799147353207E-16, -1.000000000000000000 ) ) ;
#83 = DIRECTION ( 'NONE',  ( 4.275831445896958607E-31, 1.000000000000000000, 1.224646799147353207E-16 ) ) ;
#84 = CC_DESIGN_PERSON_AND_ORGANIZATION_ASSIGNMENT ( #77, #6, ( #157 ) ) ;
#85 = DIRECTION ( 'NONE',  ( 3.491481338843133355E-15, -1.235943513693574240E-16, 1.000000000000000000 ) ) ;
#86 = APPROVAL_PERSON_ORGANIZATION ( #139, #52, #61 ) ;
#87 = FACE_OUTER_BOUND ( 'NONE', #158, .T. ) ;
#88 = DIRECTION ( 'NONE',  ( 0.0000000000000000000, -1.000000000000000000, 0.0000000000000000000 ) ) ;
#89 = DATE_AND_TIME ( #212, #120 ) ;
#90 = AXIS2_PLACEMENT_3D ( 'NONE', #31, #71, #206 ) ;
#91 = MECHANICAL_CONTEXT ( 'NONE', #123, 'mechanical' ) ;
#92 = SHAPE_DEFINITION_REPRESENTATION ( #146, #65 ) ;
#93 = PERSON_AND_ORGANIZATION ( #104, #78 ) ;
#94 = ADVANCED_FACE ( 'NONE', ( #191 ), #207, .F. ) ;
#95 = LOCAL_TIME ( 9, 46, 35.00000000000000000, #136 ) ;
#96 = PERSON_AND_ORGANIZATION_ROLE ( 'creator' ) ;
#97 = EDGE_LOOP ( 'NONE', ( #11 ) ) ;
#98 = AXIS2_PLACEMENT_3D ( 'NONE', #41, #39, #57 ) ;
#99 = ORIENTED_EDGE ( 'NONE', *, *, #27, .T. ) ;
#100 = FACE_OUTER_BOUND ( 'NONE', #29, .T. ) ;
#101 = ADVANCED_FACE ( 'NONE', ( #175, #100 ), #187, .T. ) ;
#102 = CARTESIAN_POINT ( 'NONE',  ( 4.189777606611760026E-14, 1.499759782661852408E-32, 12.00000000000000000 ) ) ;
#103 = CARTESIAN_POINT ( 'NONE',  ( 4.189777606611759395E-14, -1.734723475976807094E-15, 11.99999999999999822 ) ) ;
#104 = PERSON ( 'UNSPECIFIED', 'UNSPECIFIED', 'UNSPECIFIED', ('UNSPECIFIED'), ('UNSPECIFIED'), ('UNSPECIFIED') ) ;
#105 = PLANE ( 'NONE',  #196 ) ;
#106 = UNCERTAINTY_MEASURE_WITH_UNIT (LENGTH_MEASURE( 1.000000000000000082E-05 ), #111, 'distance_accuracy_value', 'NONE');
#107 = PRODUCT_DEFINITION_FORMATION_WITH_SPECIFIED_SOURCE ( 'ANY', '', #130, .NOT_KNOWN. ) ;
#108 = DIRECTION ( 'NONE',  ( -3.491481338843133355E-15, 1.224646799147353207E-16, -1.000000000000000000 ) ) ;
#109 = VERTEX_POINT ( 'NONE', #73 ) ;
#110 = PERSON_AND_ORGANIZATION ( #104, #78 ) ;
#111 =( LENGTH_UNIT ( ) NAMED_UNIT ( * ) SI_UNIT ( .MILLI., .METRE. ) );
#112 = CALENDAR_DATE ( 2021, 9, 11 ) ;
#113 = CC_DESIGN_APPROVAL ( #188, ( #107 ) ) ;
#114 =( NAMED_UNIT ( * ) SI_UNIT ( $, .STERADIAN. ) SOLID_ANGLE_UNIT ( ) );
#115 = CC_DESIGN_PERSON_AND_ORGANIZATION_ASSIGNMENT ( #110, #96, ( #107 ) ) ;
#116 = APPROVAL_STATUS ( 'not_yet_approved' ) ;
#117 = CALENDAR_DATE ( 2021, 9, 11 ) ;
#118 = CLOSED_SHELL ( 'NONE', ( #151, #162, #94 ) ) ;
#119 = EDGE_LOOP ( 'NONE', ( #99 ) ) ;
#120 = LOCAL_TIME ( 9, 46, 35.00000000000000000, #38 ) ;
#121 = EDGE_CURVE ( 'NONE', #132, #132, #168, .T. ) ;
#122 = EDGE_LOOP ( 'NONE', ( #26 ) ) ;
#123 = APPLICATION_CONTEXT ( 'configuration controlled 3d designs of mechanical parts and assemblies' ) ;
#124 = CARTESIAN_POINT ( 'NONE',  ( 1.745740669421566678E-13, 1.199807826129477054E-32, 50.00000000000000000 ) ) ;
#125 = CARTESIAN_POINT ( 'NONE',  ( 1.731774744066194397E-13, -6.074248123770872657E-15, 49.60000000000000853 ) ) ;
#126 = AXIS2_PLACEMENT_3D ( 'NONE', #201, #49, #12 ) ;
#127 = CARTESIAN_POINT ( 'NONE',  ( -6.413707984168844411E-31, 2.249625929858389488E-32, -1.836958975783602715E-16 ) ) ;
#128 = DIRECTION ( 'NONE',  ( 0.0000000000000000000, -1.000000000000000000, 0.0000000000000000000 ) ) ;
#129 = CARTESIAN_POINT ( 'NONE',  ( 1.745740669421566678E-13, -6.123233995736766085E-15, 50.00000000000000000 ) ) ;
#130 = PRODUCT ( '63847', '63847', '', ( #91 ) ) ;
#131 = VERTEX_POINT ( 'NONE', #194 ) ;
#132 = VERTEX_POINT ( 'NONE', #192 ) ;
#133 = EDGE_CURVE ( 'NONE', #109, #109, #76, .T. ) ;
#134 = CARTESIAN_POINT ( 'NONE',  ( 1.731774744066194397E-13, 1.999999999999994005, 49.60000000000000853 ) ) ;
#135 = APPROVAL_PERSON_ORGANIZATION ( #155, #188, #58 ) ;
#136 = COORDINATED_UNIVERSAL_TIME_OFFSET ( 1, 0, .AHEAD. ) ;
#137 = SECURITY_CLASSIFICATION_LEVEL ( 'unclassified' ) ;
#138 = APPLICATION_CONTEXT ( 'configuration controlled 3d designs of mechanical parts and assemblies' ) ;
#139 = PERSON_AND_ORGANIZATION ( #104, #78 ) ;
#140 = CC_DESIGN_DATE_AND_TIME_ASSIGNMENT ( #19, #177, ( #144 ) ) ;
#141 = ORIENTED_EDGE ( 'NONE', *, *, #27, .F. ) ;
#142 = FACE_OUTER_BOUND ( 'NONE', #183, .T. ) ;
#143 = PLANE ( 'NONE',  #28 ) ;
#144 = SECURITY_CLASSIFICATION ( '', '', #137 ) ;
#145 = DIRECTION ( 'NONE',  ( 3.491481338843133355E-15, -1.235943513693574240E-16, 1.000000000000000000 ) ) ;
#146 = PRODUCT_DEFINITION_SHAPE ( 'NONE', 'NONE',  #157 ) ;
#147 = DIRECTION ( 'NONE',  ( -4.275831445896958607E-31, -1.000000000000000000, -1.224646799147353207E-16 ) ) ;
#148 = CC_DESIGN_APPROVAL ( #64, ( #157 ) ) ;
#149 = APPLICATION_PROTOCOL_DEFINITION ( 'international standard', 'config_control_design', 1994, #123 ) ;
#150 = COORDINATED_UNIVERSAL_TIME_OFFSET ( 1, 0, .AHEAD. ) ;
#151 = ADVANCED_FACE ( 'NONE', ( #189 ), #105, .T. ) ;
#152 = APPROVAL_STATUS ( 'not_yet_approved' ) ;
#153 = MANIFOLD_SOLID_BREP ( 'Corps-Déplacer/Copier1[1]', #181 ) ;
#154 = CC_DESIGN_SECURITY_CLASSIFICATION ( #144, ( #107 ) ) ;
#155 = PERSON_AND_ORGANIZATION ( #104, #78 ) ;
#156 = CIRCLE ( 'NONE', #50, 1.749999999999994449 ) ;
#157 = PRODUCT_DEFINITION ( 'UNKNOWN', '', #107, #208 ) ;
#158 = EDGE_LOOP ( 'NONE', ( #198 ) ) ;
#159 = DIRECTION ( 'NONE',  ( -4.375116630890418482E-31, -1.000000000000000000, -1.235943513693574240E-16 ) ) ;
#160 = CARTESIAN_POINT ( 'NONE',  ( 4.189777606611759395E-14, -1.483132216432288891E-15, 11.99999999999999822 ) ) ;
#161 = DIRECTION ( 'NONE',  ( 3.491481338843133355E-15, -1.235943513693574240E-16, 1.000000000000000000 ) ) ;
#162 = ADVANCED_FACE ( 'NONE', ( #142, #200 ), #13, .T. ) ;
#163 = DIRECTION ( 'NONE',  ( -4.275831445896958607E-31, -1.000000000000000000, -1.224646799147353207E-16 ) ) ;
#164 = DATE_AND_TIME ( #117, #205 ) ;
#165 = CARTESIAN_POINT ( 'NONE',  ( 4.189777606611759395E-14, -1.749999999999996003, 11.99999999999999822 ) ) ;
#166 = COORDINATED_UNIVERSAL_TIME_OFFSET ( 1, 0, .AHEAD. ) ;
#167 = ADVANCED_FACE ( 'NONE', ( #48 ), #67, .F. ) ;
#168 = CIRCLE ( 'NONE', #79, 1.600000000000000089 ) ;
#169 = ORIENTED_EDGE ( 'NONE', *, *, #173, .F. ) ;
#170 = DIRECTION ( 'NONE',  ( -3.491481338843133355E-15, 1.224646799147353207E-16, -1.000000000000000000 ) ) ;
#171 = CARTESIAN_POINT ( 'NONE',  ( 4.189777606611760026E-14, 1.499759782661852408E-32, 12.00000000000000000 ) ) ;
#172 = DIRECTION ( 'NONE',  ( 3.491481338843133355E-15, -1.224646799147353207E-16, 1.000000000000000000 ) ) ;
#173 = EDGE_CURVE ( 'NONE', #37, #37, #156, .T. ) ;
#174 = DIRECTION ( 'NONE',  ( 0.0000000000000000000, -1.000000000000000000, 0.0000000000000000000 ) ) ;
#175 = FACE_OUTER_BOUND ( 'NONE', #119, .T. ) ;
#176 = PERSON_AND_ORGANIZATION ( #104, #78 ) ;
#177 = DATE_TIME_ROLE ( 'classification_date' ) ;
#178 =( GEOMETRIC_REPRESENTATION_CONTEXT ( 3 ) GLOBAL_UNCERTAINTY_ASSIGNED_CONTEXT ( ( #106 ) ) GLOBAL_UNIT_ASSIGNED_CONTEXT ( ( #111, #55, #114 ) ) REPRESENTATION_CONTEXT ( 'NONE', 'WORKASPACE' ) );
#179 = APPROVAL_STATUS ( 'not_yet_approved' ) ;
#180 = COORDINATED_UNIVERSAL_TIME_OFFSET ( 1, 0, .AHEAD. ) ;
#181 = CLOSED_SHELL ( 'NONE', ( #101, #46, #167, #35, #10 ) ) ;
#182 = EDGE_LOOP ( 'NONE', ( #184 ) ) ;
#183 = EDGE_LOOP ( 'NONE', ( #25 ) ) ;
#184 = ORIENTED_EDGE ( 'NONE', *, *, #75, .F. ) ;
#185 = ORIENTED_EDGE ( 'NONE', *, *, #20, .T. ) ;
#186 = DIRECTION ( 'NONE',  ( -3.491481338843133355E-15, 1.224646799147353207E-16, -1.000000000000000000 ) ) ;
#187 = CYLINDRICAL_SURFACE ( 'NONE', #90, 1.999999999999997335 ) ;
#188 = APPROVAL ( #152, 'UNSPECIFIED' ) ;
#189 = FACE_OUTER_BOUND ( 'NONE', #97, .T. ) ;
#190 = CARTESIAN_POINT ( 'NONE',  ( 1.745740669421566678E-13, -6.123233995736766085E-15, 50.00000000000000000 ) ) ;
#191 = FACE_OUTER_BOUND ( 'NONE', #182, .T. ) ;
#192 = CARTESIAN_POINT ( 'NONE',  ( 1.745740669421566678E-13, 1.599999999999994094, 50.00000000000000000 ) ) ;
#193 = APPROVAL_ROLE ( '' ) ;
#194 = CARTESIAN_POINT ( 'NONE',  ( 9.309099233749612213E-32, -1.749999999999993783, 2.666231988750678297E-17 ) ) ;
#195 = PERSON_AND_ORGANIZATION ( #104, #78 ) ;
#196 = AXIS2_PLACEMENT_3D ( 'NONE', #102, #172, #54 ) ;
#197 = PRODUCT_RELATED_PRODUCT_CATEGORY ( 'detail', '', ( #130 ) ) ;
#198 = ORIENTED_EDGE ( 'NONE', *, *, #133, .F. ) ;
#199 = EDGE_LOOP ( 'NONE', ( #141 ) ) ;
#200 = FACE_OUTER_BOUND ( 'NONE', #80, .T. ) ;
#201 = CARTESIAN_POINT ( 'NONE',  ( 8.482638922744257088E-31, -4.516317908325771396E-32, 2.429524347838814861E-16 ) ) ;
#202 = CC_DESIGN_PERSON_AND_ORGANIZATION_ASSIGNMENT ( #93, #44, ( #130 ) ) ;
#203 = LOCAL_TIME ( 9, 46, 35.00000000000000000, #166 ) ;
#204 = FACE_BOUND ( 'NONE', #30, .T. ) ;
#205 = LOCAL_TIME ( 9, 46, 35.00000000000000000, #150 ) ;
#206 = DIRECTION ( 'NONE',  ( 4.275831445896959482E-31, 1.000000000000000000, 1.224646799147353454E-16 ) ) ;
#207 = PLANE ( 'NONE',  #216 ) ;
#208 = DESIGN_CONTEXT ( 'detailed design', #138, 'design' ) ;
#209 = AXIS2_PLACEMENT_3D ( 'NONE', #14, #223, #220 ) ;
#210 = CALENDAR_DATE ( 2021, 9, 11 ) ;
#211 = CC_DESIGN_PERSON_AND_ORGANIZATION_ASSIGNMENT ( #195, #24, ( #144 ) ) ;
#212 = CALENDAR_DATE ( 2021, 9, 11 ) ;
#213 = TOROIDAL_SURFACE ( 'NONE', #81, 9.749999999999994671, 8.000000000000000000 ) ;
#214 = DATE_AND_TIME ( #112, #59 ) ;
#215 = APPROVAL_DATE_TIME ( #214, #188 ) ;
#216 = AXIS2_PLACEMENT_3D ( 'NONE', #127, #36, #163 ) ;
#217 = MANIFOLD_SOLID_BREP ( 'Corps-Déplacer/Copier1[2]', #118 ) ;
#218 = EDGE_LOOP ( 'NONE', ( #66 ) ) ;
#219 = AXIS2_PLACEMENT_3D ( 'NONE', #129, #108, #72 ) ;
#220 = DIRECTION ( 'NONE',  ( -4.315273713925326062E-31, -1.000000000000000000, -1.235943513693573994E-16 ) ) ;
#221 = DIRECTION ( 'NONE',  ( 0.0000000000000000000, 1.000000000000000000, 0.0000000000000000000 ) ) ;
#222 = APPROVAL_PERSON_ORGANIZATION ( #176, #64, #193 ) ;
#223 = DIRECTION ( 'NONE',  ( 3.491481338843133355E-15, -1.235943513693574240E-16, 1.000000000000000000 ) ) ;
ENDSEC;
END-ISO-10303-21;
