ISO-10303-21;
HEADER;
FILE_DESCRIPTION (( 'STEP AP203' ),
    '1' );
FILE_NAME ('63833.step',
    '2021-11-10T06:36:47',
    ( '' ),
    ( '' ),
    'SwSTEP 2.0',
    'SolidWorks 2019',
    '' );
FILE_SCHEMA (( 'CONFIG_CONTROL_DESIGN' ));
ENDSEC;

DATA;
#1 = EDGE_LOOP ( 'NONE', ( #103 ) ) ;
#2 = ORIENTED_EDGE ( 'NONE', *, *, #192, .T. ) ;
#3 = DATE_AND_TIME ( #102, #105 ) ;
#4 = CARTESIAN_POINT ( 'NONE',  ( 1.920314736363722714E-14, 0.0000000000000000000, 5.499999999999998224 ) ) ;
#5 = DIRECTION ( 'NONE',  ( -4.275831445896958607E-31, -1.000000000000000000, -1.224646799147353207E-16 ) ) ;
#6 = DIRECTION ( 'NONE',  ( 0.0000000000000000000, 1.000000000000000000, 0.0000000000000000000 ) ) ;
#7 = PRODUCT_DEFINITION_FORMATION_WITH_SPECIFIED_SOURCE ( 'ANY', '', #72, .NOT_KNOWN. ) ;
#8 = DIRECTION ( 'NONE',  ( -3.491481338843133355E-15, 0.0000000000000000000, -1.000000000000000000 ) ) ;
#9 = CC_DESIGN_PERSON_AND_ORGANIZATION_ASSIGNMENT ( #83, #99, ( #7 ) ) ;
#10 = PLANE ( 'NONE',  #44 ) ;
#11 =( NAMED_UNIT ( * ) SI_UNIT ( $, .STERADIAN. ) SOLID_ANGLE_UNIT ( ) );
#12 = AXIS2_PLACEMENT_3D ( 'NONE', #111, #8, #58 ) ;
#13 = PERSON_AND_ORGANIZATION ( #107, #211 ) ;
#14 = PERSON_AND_ORGANIZATION_ROLE ( 'creator' ) ;
#15 = VERTEX_POINT ( 'NONE', #96 ) ;
#16 = DATE_AND_TIME ( #119, #201 ) ;
#18 = CC_DESIGN_PERSON_AND_ORGANIZATION_ASSIGNMENT ( #223, #26, ( #72 ) ) ;
#17 = COORDINATED_UNIVERSAL_TIME_OFFSET ( 1, 0, .AHEAD. ) ;
#19 = EDGE_CURVE ( 'NONE', #213, #213, #28, .T. ) ;
#20 = AXIS2_PLACEMENT_3D ( 'NONE', #210, #92, #214 ) ;
#21 = DIRECTION ( 'NONE',  ( 1.000000000000000000, 0.0000000000000000000, -3.491481338843133355E-15 ) ) ;
#22 = DIRECTION ( 'NONE',  ( 1.000000000000000000, 0.0000000000000000000, -3.469446951953615372E-15 ) ) ;
#23 = DIRECTION ( 'NONE',  ( 3.491481338843133355E-15, -1.224646799147353207E-16, 1.000000000000000000 ) ) ;
#24 = CC_DESIGN_APPROVAL ( #82, ( #164 ) ) ;
#25 = FACE_OUTER_BOUND ( 'NONE', #118, .T. ) ;
#26 = PERSON_AND_ORGANIZATION_ROLE ( 'design_owner' ) ;
#27 = VERTEX_POINT ( 'NONE', #130 ) ;
#28 = CIRCLE ( 'NONE', #20, 2.750000000000000000 ) ;
#29 = DATE_AND_TIME ( #187, #186 ) ;
#30 = CARTESIAN_POINT ( 'NONE',  ( 1.745740669421566678E-13, 2.499999999999995559, 50.00000000000000000 ) ) ;
#31 = EDGE_LOOP ( 'NONE', ( #51 ) ) ;
#32 = EDGE_CURVE ( 'NONE', #222, #222, #116, .T. ) ;
#33 = COORDINATED_UNIVERSAL_TIME_OFFSET ( 1, 0, .AHEAD. ) ;
#34 = ORIENTED_EDGE ( 'NONE', *, *, #141, .F. ) ;
#35 = DIRECTION ( 'NONE',  ( 3.491481338843133355E-15, -0.0000000000000000000, 1.000000000000000000 ) ) ;
#36 = CARTESIAN_POINT ( 'NONE',  ( 1.728283262727351074E-13, -6.062001655779398511E-15, 49.50000000000000000 ) ) ;
#37 = ADVANCED_FACE ( 'NONE', ( #55, #25 ), #182, .F. ) ;
#38 = DIRECTION ( 'NONE',  ( 0.0000000000000000000, 1.000000000000000000, 0.0000000000000000000 ) ) ;
#39 = CIRCLE ( 'NONE', #67, 3.000000000000001776 ) ;
#40 = DIRECTION ( 'NONE',  ( -3.491481338843133355E-15, 1.224646799147353207E-16, -1.000000000000000000 ) ) ;
#41 = EDGE_CURVE ( 'NONE', #15, #15, #177, .T. ) ;
#42 = APPROVAL_STATUS ( 'not_yet_approved' ) ;
#43 = COORDINATED_UNIVERSAL_TIME_OFFSET ( 1, 0, .AHEAD. ) ;
#44 = AXIS2_PLACEMENT_3D ( 'NONE', #195, #23, #5 ) ;
#45 = PRODUCT_DEFINITION ( 'UNKNOWN', '', #7, #89 ) ;
#46 = CARTESIAN_POINT ( 'NONE',  ( -2.999999999999973355, 0.0000000000000000000, 7.484313483298453029 ) ) ;
#47 = APPLICATION_PROTOCOL_DEFINITION ( 'international standard', 'config_control_design', 1994, #133 ) ;
#48 = APPROVAL_PERSON_ORGANIZATION ( #60, #179, #202 ) ;
#49 = PERSON_AND_ORGANIZATION ( #107, #211 ) ;
#50 = EDGE_LOOP ( 'NONE', ( #2 ) ) ;
#51 = ORIENTED_EDGE ( 'NONE', *, *, #192, .F. ) ;
#52 = CIRCLE ( 'NONE', #84, 2.500000000000001776 ) ;
#53 = ORIENTED_EDGE ( 'NONE', *, *, #184, .F. ) ;
#54 = PLANE ( 'NONE',  #63 ) ;
#55 = FACE_OUTER_BOUND ( 'NONE', #90, .T. ) ;
#56 = CC_DESIGN_PERSON_AND_ORGANIZATION_ASSIGNMENT ( #13, #134, ( #45 ) ) ;
#57 = CARTESIAN_POINT ( 'NONE',  ( 1.920314736363723345E-14, 2.249639673992782580E-32, 5.500000000000000000 ) ) ;
#58 = DIRECTION ( 'NONE',  ( -1.000000000000000000, 0.0000000000000000000, 3.469446951953615372E-15 ) ) ;
#59 = APPROVAL_PERSON_ORGANIZATION ( #49, #82, #191 ) ;
#60 = PERSON_AND_ORGANIZATION ( #107, #211 ) ;
#61 = MANIFOLD_SOLID_BREP ( 'Corps-Déplacer/Copier1[1]', #215 ) ;
#62 = PERSON_AND_ORGANIZATION ( #107, #211 ) ;
#63 = AXIS2_PLACEMENT_3D ( 'NONE', #57, #144, #163 ) ;
#64 = COORDINATED_UNIVERSAL_TIME_OFFSET ( 1, 0, .AHEAD. ) ;
#65 = CC_DESIGN_DATE_AND_TIME_ASSIGNMENT ( #135, #100, ( #45 ) ) ;
#66 = ORIENTED_EDGE ( 'NONE', *, *, #32, .T. ) ;
#67 = AXIS2_PLACEMENT_3D ( 'NONE', #36, #78, #122 ) ;
#68 = EDGE_LOOP ( 'NONE', ( #69 ) ) ;
#69 = ORIENTED_EDGE ( 'NONE', *, *, #32, .F. ) ;
#70 = CLOSED_SHELL ( 'NONE', ( #162, #125, #172 ) ) ;
#71 = ORIENTED_EDGE ( 'NONE', *, *, #41, .F. ) ;
#72 = PRODUCT ( '63833', '63833', '', ( #152 ) ) ;
#73 = DIRECTION ( 'NONE',  ( 3.491481338843133355E-15, -0.0000000000000000000, 1.000000000000000000 ) ) ;
#74 = FACE_OUTER_BOUND ( 'NONE', #206, .T. ) ;
#75 = FACE_OUTER_BOUND ( 'NONE', #158, .T. ) ;
#76 = AXIS2_PLACEMENT_3D ( 'NONE', #108, #160, #77 ) ;
#77 = DIRECTION ( 'NONE',  ( -4.275831445896958607E-31, -1.000000000000000000, -1.224646799147353207E-16 ) ) ;
#78 = DIRECTION ( 'NONE',  ( -3.491481338843133355E-15, 1.224646799147353207E-16, -1.000000000000000000 ) ) ;
#79 = CARTESIAN_POINT ( 'NONE',  ( 0.0000000000000000000, 0.0000000000000000000, 0.0000000000000000000 ) ) ;
#80 = CONICAL_SURFACE ( 'NONE', #207, 2.500000000000001776, 0.7853981633974479459 ) ;
#81 = APPROVAL_DATE_TIME ( #29, #146 ) ;
#82 = APPROVAL ( #86, 'UNSPECIFIED' ) ;
#83 = PERSON_AND_ORGANIZATION ( #107, #211 ) ;
#84 = AXIS2_PLACEMENT_3D ( 'NONE', #93, #147, #6 ) ;
#85 =( LENGTH_UNIT ( ) NAMED_UNIT ( * ) SI_UNIT ( .MILLI., .METRE. ) );
#86 = APPROVAL_STATUS ( 'not_yet_approved' ) ;
#87 = APPLICATION_CONTEXT ( 'configuration controlled 3d designs of mechanical parts and assemblies' ) ;
#88 = CC_DESIGN_PERSON_AND_ORGANIZATION_ASSIGNMENT ( #171, #14, ( #7 ) ) ;
#89 = DESIGN_CONTEXT ( 'detailed design', #87, 'design' ) ;
#90 = EDGE_LOOP ( 'NONE', ( #157 ) ) ;
#91 = FACE_OUTER_BOUND ( 'NONE', #142, .T. ) ;
#92 = DIRECTION ( 'NONE',  ( 3.491481338843133355E-15, -0.0000000000000000000, 1.000000000000000000 ) ) ;
#93 = CARTESIAN_POINT ( 'NONE',  ( 1.745740669421566678E-13, -6.123233995736766085E-15, 50.00000000000000000 ) ) ;
#94 = CYLINDRICAL_SURFACE ( 'NONE', #169, 2.749999999999999556 ) ;
#95 = CARTESIAN_POINT ( 'NONE',  ( 1.920314736363722714E-14, 0.0000000000000000000, 5.499999999999998224 ) ) ;
#96 = CARTESIAN_POINT ( 'NONE',  ( 2.750000000000018208, 0.0000000000000000000, 5.499999999999988454 ) ) ;
#97 = VERTEX_POINT ( 'NONE', #30 ) ;
#98 = CC_DESIGN_DATE_AND_TIME_ASSIGNMENT ( #3, #189, ( #164 ) ) ;
#99 = PERSON_AND_ORGANIZATION_ROLE ( 'design_supplier' ) ;
#100 = DATE_TIME_ROLE ( 'creation_date' ) ;
#101 = CC_DESIGN_APPROVAL ( #146, ( #7 ) ) ;
#102 = CALENDAR_DATE ( 2021, 10, 11 ) ;
#103 = ORIENTED_EDGE ( 'NONE', *, *, #41, .T. ) ;
#104 = ADVANCED_FACE ( 'NONE', ( #128 ), #178, .F. ) ;
#105 = LOCAL_TIME ( 7, 36, 47.00000000000000000, #17 ) ;
#106 = DIRECTION ( 'NONE',  ( 4.275831445896958607E-31, 1.000000000000000000, 1.224646799147353207E-16 ) ) ;
#107 = PERSON ( 'UNSPECIFIED', 'UNSPECIFIED', 'UNSPECIFIED', ('UNSPECIFIED'), ('UNSPECIFIED'), ('UNSPECIFIED') ) ;
#108 = CARTESIAN_POINT ( 'NONE',  ( -3.206816838010677856E-31, 1.124799933034399755E-32, -9.184688465421452921E-17 ) ) ;
#109 = DIRECTION ( 'NONE',  ( 1.000000000000000000, 0.0000000000000000000, -3.469446951953615372E-15 ) ) ;
#110 = ADVANCED_FACE ( 'NONE', ( #161, #183 ), #113, .T. ) ;
#111 = CARTESIAN_POINT ( 'NONE',  ( 2.613134086098855924E-14, 0.0000000000000000000, 7.484313483298442371 ) ) ;
#112 = LOCAL_TIME ( 7, 36, 47.00000000000000000, #64 ) ;
#113 = CYLINDRICAL_SURFACE ( 'NONE', #137, 2.999999999999999112 ) ;
#114 = AXIS2_PLACEMENT_3D ( 'NONE', #180, #35, #21 ) ;
#115 = DIRECTION ( 'NONE',  ( 1.000000000000000000, 0.0000000000000000000, 0.0000000000000000000 ) ) ;
#116 = CIRCLE ( 'NONE', #12, 2.999999999999999112 ) ;
#117 = EDGE_LOOP ( 'NONE', ( #53 ) ) ;
#118 = EDGE_LOOP ( 'NONE', ( #66 ) ) ;
#119 = CALENDAR_DATE ( 2021, 10, 11 ) ;
#120 = ORIENTED_EDGE ( 'NONE', *, *, #141, .T. ) ;
#121 = ADVANCED_FACE ( 'NONE', ( #167 ), #10, .F. ) ;
#122 = DIRECTION ( 'NONE',  ( 0.0000000000000000000, 1.000000000000000000, 0.0000000000000000000 ) ) ;
#123 = CARTESIAN_POINT ( 'NONE',  ( 0.0000000000000000000, 0.0000000000000000000, 0.0000000000000000000 ) ) ;
#124 = FACE_OUTER_BOUND ( 'NONE', #136, .T. ) ;
#125 = ADVANCED_FACE ( 'NONE', ( #74, #124 ), #94, .T. ) ;
#126 = DIRECTION ( 'NONE',  ( -3.491481338843133355E-15, 1.224646799147353207E-16, -1.000000000000000000 ) ) ;
#127 =( GEOMETRIC_REPRESENTATION_CONTEXT ( 3 ) GLOBAL_UNCERTAINTY_ASSIGNED_CONTEXT ( ( #140 ) ) GLOBAL_UNIT_ASSIGNED_CONTEXT ( ( #85, #154, #11 ) ) REPRESENTATION_CONTEXT ( 'NONE', 'WORKASPACE' ) );
#128 = FACE_OUTER_BOUND ( 'NONE', #31, .T. ) ;
#129 = CALENDAR_DATE ( 2021, 10, 11 ) ;
#130 = CARTESIAN_POINT ( 'NONE',  ( 2.750000000000018208, 0.0000000000000000000, 5.499999999999988454 ) ) ;
#131 = APPROVAL_STATUS ( 'not_yet_approved' ) ;
#132 = APPROVAL_PERSON_ORGANIZATION ( #62, #146, #200 ) ;
#133 = APPLICATION_CONTEXT ( 'configuration controlled 3d designs of mechanical parts and assemblies' ) ;
#134 = PERSON_AND_ORGANIZATION_ROLE ( 'creator' ) ;
#135 = DATE_AND_TIME ( #129, #159 ) ;
#136 = EDGE_LOOP ( 'NONE', ( #71 ) ) ;
#137 = AXIS2_PLACEMENT_3D ( 'NONE', #123, #126, #106 ) ;
#138 = APPROVAL_DATE_TIME ( #16, #82 ) ;
#139 = CC_DESIGN_PERSON_AND_ORGANIZATION_ASSIGNMENT ( #203, #176, ( #164 ) ) ;
#140 = UNCERTAINTY_MEASURE_WITH_UNIT (LENGTH_MEASURE( 1.000000000000000082E-05 ), #85, 'distance_accuracy_value', 'NONE');
#141 = EDGE_CURVE ( 'NONE', #188, #188, #39, .T. ) ;
#142 = EDGE_LOOP ( 'NONE', ( #190 ) ) ;
#143 = FACE_OUTER_BOUND ( 'NONE', #1, .T. ) ;
#144 = DIRECTION ( 'NONE',  ( 3.491481338843133355E-15, -1.224646799147353207E-16, 1.000000000000000000 ) ) ;
#145 = FACE_BOUND ( 'NONE', #50, .T. ) ;
#146 = APPROVAL ( #42, 'UNSPECIFIED' ) ;
#147 = DIRECTION ( 'NONE',  ( -3.491481338843133355E-15, 1.224646799147353207E-16, -1.000000000000000000 ) ) ;
#148 = EDGE_LOOP ( 'NONE', ( #120 ) ) ;
#149 = DIRECTION ( 'NONE',  ( 0.0000000000000000000, 0.0000000000000000000, 1.000000000000000000 ) ) ;
#150 = CALENDAR_DATE ( 2021, 10, 11 ) ;
#151 = SECURITY_CLASSIFICATION_LEVEL ( 'unclassified' ) ;
#152 = MECHANICAL_CONTEXT ( 'NONE', #133, 'mechanical' ) ;
#153 = PRODUCT_RELATED_PRODUCT_CATEGORY ( 'detail', '', ( #72 ) ) ;
#154 =( NAMED_UNIT ( * ) PLANE_ANGLE_UNIT ( ) SI_UNIT ( $, .RADIAN. ) );
#155 = AXIS2_PLACEMENT_3D ( 'NONE', #197, #40, #181 ) ;
#156 = ORIENTED_EDGE ( 'NONE', *, *, #19, .T. ) ;
#157 = ORIENTED_EDGE ( 'NONE', *, *, #184, .T. ) ;
#158 = EDGE_LOOP ( 'NONE', ( #34 ) ) ;
#159 = LOCAL_TIME ( 7, 36, 47.00000000000000000, #173 ) ;
#160 = DIRECTION ( 'NONE',  ( 3.491481338843133355E-15, -1.224646799147353207E-16, 1.000000000000000000 ) ) ;
#161 = FACE_OUTER_BOUND ( 'NONE', #148, .T. ) ;
#162 = ADVANCED_FACE ( 'NONE', ( #143 ), #54, .T. ) ;
#163 = DIRECTION ( 'NONE',  ( -4.275831445896958607E-31, -1.000000000000000000, -1.224646799147353207E-16 ) ) ;
#164 = SECURITY_CLASSIFICATION ( '', '', #151 ) ;
#165 = PLANE ( 'NONE',  #76 ) ;
#166 = PRODUCT_DEFINITION_SHAPE ( 'NONE', 'NONE',  #45 ) ;
#167 = FACE_OUTER_BOUND ( 'NONE', #117, .T. ) ;
#168 = CARTESIAN_POINT ( 'NONE',  ( 1.728283262727351074E-13, 2.999999999999995559, 49.50000000000000000 ) ) ;
#169 = AXIS2_PLACEMENT_3D ( 'NONE', #185, #193, #198 ) ;
#170 = APPLICATION_PROTOCOL_DEFINITION ( 'international standard', 'config_control_design', 1994, #87 ) ;
#171 = PERSON_AND_ORGANIZATION ( #107, #211 ) ;
#172 = ADVANCED_FACE ( 'NONE', ( #91 ), #165, .F. ) ;
#173 = COORDINATED_UNIVERSAL_TIME_OFFSET ( 1, 0, .AHEAD. ) ;
#174 = CIRCLE ( 'NONE', #175, 2.749999999999999112 ) ;
#175 = AXIS2_PLACEMENT_3D ( 'NONE', #4, #73, #22 ) ;
#176 = PERSON_AND_ORGANIZATION_ROLE ( 'classification_officer' ) ;
#177 = CIRCLE ( 'NONE', #216, 2.749999999999999112 ) ;
#178 = PLANE ( 'NONE',  #155 ) ;
#179 = APPROVAL ( #131, 'UNSPECIFIED' ) ;
#180 = CARTESIAN_POINT ( 'NONE',  ( 1.920314736363723345E-14, 0.0000000000000000000, 5.500000000000000000 ) ) ;
#181 = DIRECTION ( 'NONE',  ( 4.275831445896958607E-31, 1.000000000000000000, 1.224646799147353207E-16 ) ) ;
#182 = TOROIDAL_SURFACE ( 'NONE', #114, 10.75000000000000000, 8.000000000000000000 ) ;
#183 = FACE_OUTER_BOUND ( 'NONE', #68, .T. ) ;
#184 = EDGE_CURVE ( 'NONE', #27, #27, #174, .T. ) ;
#185 = CARTESIAN_POINT ( 'NONE',  ( 0.0000000000000000000, 0.0000000000000000000, 0.0000000000000000000 ) ) ;
#186 = LOCAL_TIME ( 7, 36, 47.00000000000000000, #43 ) ;
#187 = CALENDAR_DATE ( 2021, 10, 11 ) ;
#188 = VERTEX_POINT ( 'NONE', #168 ) ;
#189 = DATE_TIME_ROLE ( 'classification_date' ) ;
#190 = ORIENTED_EDGE ( 'NONE', *, *, #19, .F. ) ;
#191 = APPROVAL_ROLE ( '' ) ;
#192 = EDGE_CURVE ( 'NONE', #97, #97, #52, .T. ) ;
#193 = DIRECTION ( 'NONE',  ( 3.491481338843133355E-15, -0.0000000000000000000, 1.000000000000000000 ) ) ;
#194 = CC_DESIGN_SECURITY_CLASSIFICATION ( #164, ( #7 ) ) ;
#195 = CARTESIAN_POINT ( 'NONE',  ( 1.920314736363723345E-14, 2.249639673992782580E-32, 5.500000000000000000 ) ) ;
#196 = DIRECTION ( 'NONE',  ( -3.491481338843133355E-15, 1.224646799147353207E-16, -1.000000000000000000 ) ) ;
#197 = CARTESIAN_POINT ( 'NONE',  ( 1.745740669421566678E-13, 1.874699728327314346E-32, 50.00000000000000000 ) ) ;
#198 = DIRECTION ( 'NONE',  ( 1.000000000000000000, 0.0000000000000000000, -3.491481338843133355E-15 ) ) ;
#199 = APPROVAL_DATE_TIME ( #217, #179 ) ;
#200 = APPROVAL_ROLE ( '' ) ;
#201 = LOCAL_TIME ( 7, 36, 47.00000000000000000, #33 ) ;
#202 = APPROVAL_ROLE ( '' ) ;
#203 = PERSON_AND_ORGANIZATION ( #107, #211 ) ;
#204 = SHAPE_DEFINITION_REPRESENTATION ( #166, #219 ) ;
#205 = CC_DESIGN_APPROVAL ( #179, ( #45 ) ) ;
#206 = EDGE_LOOP ( 'NONE', ( #156 ) ) ;
#207 = AXIS2_PLACEMENT_3D ( 'NONE', #212, #196, #38 ) ;
#208 = DIRECTION ( 'NONE',  ( 3.491481338843133355E-15, -0.0000000000000000000, 1.000000000000000000 ) ) ;
#209 = MANIFOLD_SOLID_BREP ( 'Corps-Déplacer/Copier1[2]', #70 ) ;
#210 = CARTESIAN_POINT ( 'NONE',  ( 0.0000000000000000000, 0.0000000000000000000, 0.0000000000000000000 ) ) ;
#211 = ORGANIZATION ( 'UNSPECIFIED', 'UNSPECIFIED', '' ) ;
#212 = CARTESIAN_POINT ( 'NONE',  ( 1.745740669421566678E-13, -6.123233995736766085E-15, 50.00000000000000000 ) ) ;
#213 = VERTEX_POINT ( 'NONE', #220 ) ;
#214 = DIRECTION ( 'NONE',  ( 1.000000000000000000, 0.0000000000000000000, -3.491481338843133355E-15 ) ) ;
#215 = CLOSED_SHELL ( 'NONE', ( #110, #218, #104, #37, #121 ) ) ;
#216 = AXIS2_PLACEMENT_3D ( 'NONE', #95, #208, #109 ) ;
#217 = DATE_AND_TIME ( #150, #112 ) ;
#218 = ADVANCED_FACE ( 'NONE', ( #75, #145 ), #80, .T. ) ;
#219 = ADVANCED_BREP_SHAPE_REPRESENTATION ( '63833', ( #61, #209, #221 ), #127 ) ;
#220 = CARTESIAN_POINT ( 'NONE',  ( 2.750000000000000000, 0.0000000000000000000, -9.601573681818616727E-15 ) ) ;
#221 = AXIS2_PLACEMENT_3D ( 'NONE', #79, #149, #115 ) ;
#222 = VERTEX_POINT ( 'NONE', #46 ) ;
#223 = PERSON_AND_ORGANIZATION ( #107, #211 ) ;
ENDSEC;
END-ISO-10303-21;
