ISO-10303-21;
HEADER;
FILE_DESCRIPTION (( 'STEP AP203' ),
    '1' );
FILE_NAME ('63832.step',
    '2021-11-10T06:36:47',
    ( '' ),
    ( '' ),
    'SwSTEP 2.0',
    'SolidWorks 2019',
    '' );
FILE_SCHEMA (( 'CONFIG_CONTROL_DESIGN' ));
ENDSEC;

DATA;
#1 = SECURITY_CLASSIFICATION ( '', '', #167 ) ;
#2 = ORIENTED_EDGE ( 'NONE', *, *, #4, .T. ) ;
#3 = DIRECTION ( 'NONE',  ( 3.491481338843133355E-15, -0.0000000000000000000, 1.000000000000000000 ) ) ;
#4 = EDGE_CURVE ( 'NONE', #73, #73, #57, .T. ) ;
#5 = PRODUCT_DEFINITION_SHAPE ( 'NONE', 'NONE',  #34 ) ;
#6 = ORIENTED_EDGE ( 'NONE', *, *, #111, .T. ) ;
#7 = CARTESIAN_POINT ( 'NONE',  ( 1.745740669421566678E-13, -6.123233995736766085E-15, 50.00000000000000000 ) ) ;
#8 = DIRECTION ( 'NONE',  ( 0.0000000000000000000, 1.000000000000000000, 0.0000000000000000000 ) ) ;
#9 = DIRECTION ( 'NONE',  ( 3.491481338843133355E-15, -1.224646799147353207E-16, 1.000000000000000000 ) ) ;
#10 = CARTESIAN_POINT ( 'NONE',  ( 1.745740669421566678E-14, 2.249639673992782854E-32, 5.000000000000000000 ) ) ;
#11 = ADVANCED_FACE ( 'NONE', ( #74, #160 ), #165, .T. ) ;
#12 = CARTESIAN_POINT ( 'NONE',  ( 1.745740669421566678E-13, -6.123233995736766085E-15, 50.00000000000000000 ) ) ;
#13 = CARTESIAN_POINT ( 'NONE',  ( 2.500000000000017764, 0.0000000000000000000, 4.999999999999990230 ) ) ;
#14 = PERSON_AND_ORGANIZATION ( #220, #109 ) ;
#15 = APPROVAL_DATE_TIME ( #202, #175 ) ;
#16 = PERSON_AND_ORGANIZATION ( #220, #109 ) ;
#17 = DATE_TIME_ROLE ( 'creation_date' ) ;
#18 = APPLICATION_CONTEXT ( 'configuration controlled 3d designs of mechanical parts and assemblies' ) ;
#19 = CALENDAR_DATE ( 2021, 10, 11 ) ;
#20 = ORIENTED_EDGE ( 'NONE', *, *, #100, .F. ) ;
#21 = DIRECTION ( 'NONE',  ( 4.275831445896958607E-31, 1.000000000000000000, 1.224646799147353207E-16 ) ) ;
#22 = CARTESIAN_POINT ( 'NONE',  ( 1.745740669421566678E-14, 0.0000000000000000000, 5.000000000000000000 ) ) ;
#23 = CARTESIAN_POINT ( 'NONE',  ( 1.745740669421566678E-13, 1.874699728327314346E-32, 50.00000000000000000 ) ) ;
#24 = FACE_BOUND ( 'NONE', #115, .T. ) ;
#25 = PERSON_AND_ORGANIZATION_ROLE ( 'creator' ) ;
#26 = AXIS2_PLACEMENT_3D ( 'NONE', #106, #163, #8 ) ;
#27 = PERSON_AND_ORGANIZATION_ROLE ( 'design_owner' ) ;
#28 =( LENGTH_UNIT ( ) NAMED_UNIT ( * ) SI_UNIT ( .MILLI., .METRE. ) );
#29 = LOCAL_TIME ( 7, 36, 47.00000000000000000, #64 ) ;
#30 = APPROVAL_ROLE ( '' ) ;
#31 = ORIENTED_EDGE ( 'NONE', *, *, #32, .F. ) ;
#32 = EDGE_CURVE ( 'NONE', #212, #212, #108, .T. ) ;
#33 = LOCAL_TIME ( 7, 36, 47.00000000000000000, #128 ) ;
#34 = PRODUCT_DEFINITION ( 'UNKNOWN', '', #166, #155 ) ;
#35 = CYLINDRICAL_SURFACE ( 'NONE', #215, 2.999999999999999112 ) ;
#36 = FACE_OUTER_BOUND ( 'NONE', #208, .T. ) ;
#37 = ADVANCED_FACE ( 'NONE', ( #91 ), #210, .F. ) ;
#38 = FACE_OUTER_BOUND ( 'NONE', #82, .T. ) ;
#39 = DIRECTION ( 'NONE',  ( 3.491481338843133355E-15, -1.224646799147353207E-16, 1.000000000000000000 ) ) ;
#40 = FACE_OUTER_BOUND ( 'NONE', #205, .T. ) ;
#41 = CALENDAR_DATE ( 2021, 10, 11 ) ;
#42 = APPLICATION_PROTOCOL_DEFINITION ( 'international standard', 'config_control_design', 1994, #18 ) ;
#43 = VERTEX_POINT ( 'NONE', #219 ) ;
#44 = CC_DESIGN_PERSON_AND_ORGANIZATION_ASSIGNMENT ( #60, #78, ( #166 ) ) ;
#45 = APPROVAL_STATUS ( 'not_yet_approved' ) ;
#46 = CIRCLE ( 'NONE', #26, 3.000000000000001776 ) ;
#47 = ORIENTED_EDGE ( 'NONE', *, *, #32, .T. ) ;
#48 = EDGE_LOOP ( 'NONE', ( #154 ) ) ;
#49 = ADVANCED_FACE ( 'NONE', ( #122 ), #52, .F. ) ;
#50 = AXIS2_PLACEMENT_3D ( 'NONE', #23, #56, #138 ) ;
#51 = EDGE_LOOP ( 'NONE', ( #114 ) ) ;
#52 = PLANE ( 'NONE',  #152 ) ;
#53 = DIRECTION ( 'NONE',  ( -4.275831445896958607E-31, -1.000000000000000000, -1.224646799147353207E-16 ) ) ;
#54 = CARTESIAN_POINT ( 'NONE',  ( 1.745740669421566678E-13, 2.499999999999995559, 50.00000000000000000 ) ) ;
#55 = DIRECTION ( 'NONE',  ( -3.491481338843133355E-15, 1.224646799147353207E-16, -1.000000000000000000 ) ) ;
#56 = DIRECTION ( 'NONE',  ( -3.491481338843133355E-15, 1.224646799147353207E-16, -1.000000000000000000 ) ) ;
#57 = CIRCLE ( 'NONE', #191, 2.500000000000000000 ) ;
#58 = MANIFOLD_SOLID_BREP ( 'Corps-Déplacer/Copier1[2]', #66 ) ;
#59 = CARTESIAN_POINT ( 'NONE',  ( 1.728283262727351074E-13, 2.999999999999995559, 49.50000000000000000 ) ) ;
#60 = PERSON_AND_ORGANIZATION ( #220, #109 ) ;
#61 = APPROVAL_ROLE ( '' ) ;
#62 = AXIS2_PLACEMENT_3D ( 'NONE', #214, #103, #176 ) ;
#63 = COORDINATED_UNIVERSAL_TIME_OFFSET ( 1, 0, .AHEAD. ) ;
#64 = COORDINATED_UNIVERSAL_TIME_OFFSET ( 1, 0, .AHEAD. ) ;
#65 = COORDINATED_UNIVERSAL_TIME_OFFSET ( 1, 0, .AHEAD. ) ;
#66 = CLOSED_SHELL ( 'NONE', ( #70, #11, #130 ) ) ;
#67 = APPROVAL_PERSON_ORGANIZATION ( #81, #171, #30 ) ;
#68 = EDGE_LOOP ( 'NONE', ( #158 ) ) ;
#69 = PLANE ( 'NONE',  #209 ) ;
#70 = ADVANCED_FACE ( 'NONE', ( #36 ), #69, .T. ) ;
#71 = PLANE ( 'NONE',  #80 ) ;
#72 = AXIS2_PLACEMENT_3D ( 'NONE', #22, #180, #190 ) ;
#73 = VERTEX_POINT ( 'NONE', #136 ) ;
#74 = FACE_OUTER_BOUND ( 'NONE', #101, .T. ) ;
#75 = CARTESIAN_POINT ( 'NONE',  ( 1.745740669421566678E-14, 2.249639673992782854E-32, 5.000000000000000000 ) ) ;
#76 = PERSON_AND_ORGANIZATION ( #220, #109 ) ;
#77 = COORDINATED_UNIVERSAL_TIME_OFFSET ( 1, 0, .AHEAD. ) ;
#78 = PERSON_AND_ORGANIZATION_ROLE ( 'design_supplier' ) ;
#79 = CALENDAR_DATE ( 2021, 10, 11 ) ;
#80 = AXIS2_PLACEMENT_3D ( 'NONE', #134, #9, #53 ) ;
#81 = PERSON_AND_ORGANIZATION ( #220, #109 ) ;
#82 = EDGE_LOOP ( 'NONE', ( #20 ) ) ;
#83 = LOCAL_TIME ( 7, 36, 47.00000000000000000, #63 ) ;
#84 = ORIENTED_EDGE ( 'NONE', *, *, #4, .F. ) ;
#85 = ADVANCED_FACE ( 'NONE', ( #89, #40 ), #35, .T. ) ;
#86 = UNCERTAINTY_MEASURE_WITH_UNIT (LENGTH_MEASURE( 1.000000000000000082E-05 ), #28, 'distance_accuracy_value', 'NONE');
#87 = CC_DESIGN_APPROVAL ( #171, ( #1 ) ) ;
#88 = DIRECTION ( 'NONE',  ( 1.000000000000000000, 0.0000000000000000000, -3.491481338843133355E-15 ) ) ;
#89 = FACE_OUTER_BOUND ( 'NONE', #68, .T. ) ;
#90 = DIRECTION ( 'NONE',  ( -3.491481338843133355E-15, 0.0000000000000000000, -1.000000000000000000 ) ) ;
#91 = FACE_OUTER_BOUND ( 'NONE', #117, .T. ) ;
#92 = CC_DESIGN_APPROVAL ( #175, ( #34 ) ) ;
#93 = FACE_OUTER_BOUND ( 'NONE', #156, .T. ) ;
#94 = VERTEX_POINT ( 'NONE', #13 ) ;
#95 = APPROVAL_DATE_TIME ( #203, #150 ) ;
#96 = AXIS2_PLACEMENT_3D ( 'NONE', #7, #55, #177 ) ;
#97 = ADVANCED_FACE ( 'NONE', ( #93, #139 ), #135, .F. ) ;
#98 =( NAMED_UNIT ( * ) PLANE_ANGLE_UNIT ( ) SI_UNIT ( $, .RADIAN. ) );
#99 = LOCAL_TIME ( 7, 36, 47.00000000000000000, #77 ) ;
#100 = EDGE_CURVE ( 'NONE', #120, #120, #46, .T. ) ;
#101 = EDGE_LOOP ( 'NONE', ( #2 ) ) ;
#102 = CARTESIAN_POINT ( 'NONE',  ( 1.745740669421566362E-14, 0.0000000000000000000, 4.999999999999999112 ) ) ;
#103 = DIRECTION ( 'NONE',  ( 3.491481338843133355E-15, -0.0000000000000000000, 1.000000000000000000 ) ) ;
#104 = CARTESIAN_POINT ( 'NONE',  ( 0.0000000000000000000, 0.0000000000000000000, 0.0000000000000000000 ) ) ;
#105 = DIRECTION ( 'NONE',  ( 3.491481338843133355E-15, -0.0000000000000000000, 1.000000000000000000 ) ) ;
#106 = CARTESIAN_POINT ( 'NONE',  ( 1.728283262727351074E-13, -6.062001655779398511E-15, 49.50000000000000000 ) ) ;
#107 = PERSON_AND_ORGANIZATION ( #220, #109 ) ;
#108 = CIRCLE ( 'NONE', #96, 2.500000000000001776 ) ;
#109 = ORGANIZATION ( 'UNSPECIFIED', 'UNSPECIFIED', '' ) ;
#111 = EDGE_CURVE ( 'NONE', #146, #146, #199, .T. ) ;
#110 = DIRECTION ( 'NONE',  ( 0.0000000000000000000, 0.0000000000000000000, 1.000000000000000000 ) ) ;
#112 = PERSON_AND_ORGANIZATION ( #220, #109 ) ;
#113 = AXIS2_PLACEMENT_3D ( 'NONE', #193, #90, #161 ) ;
#114 = ORIENTED_EDGE ( 'NONE', *, *, #111, .F. ) ;
#115 = EDGE_LOOP ( 'NONE', ( #47 ) ) ;
#116 = AXIS2_PLACEMENT_3D ( 'NONE', #12, #211, #119 ) ;
#117 = EDGE_LOOP ( 'NONE', ( #31 ) ) ;
#118 = AXIS2_PLACEMENT_3D ( 'NONE', #104, #159, #196 ) ;
#119 = DIRECTION ( 'NONE',  ( 0.0000000000000000000, 1.000000000000000000, 0.0000000000000000000 ) ) ;
#120 = VERTEX_POINT ( 'NONE', #59 ) ;
#121 = EDGE_CURVE ( 'NONE', #94, #94, #188, .T. ) ;
#122 = FACE_OUTER_BOUND ( 'NONE', #172, .T. ) ;
#123 = DIRECTION ( 'NONE',  ( -3.491481338843133355E-15, 1.224646799147353207E-16, -1.000000000000000000 ) ) ;
#124 = DATE_AND_TIME ( #143, #99 ) ;
#125 = CLOSED_SHELL ( 'NONE', ( #85, #140, #37, #97, #49 ) ) ;
#126 =( GEOMETRIC_REPRESENTATION_CONTEXT ( 3 ) GLOBAL_UNCERTAINTY_ASSIGNED_CONTEXT ( ( #86 ) ) GLOBAL_UNIT_ASSIGNED_CONTEXT ( ( #28, #98, #201 ) ) REPRESENTATION_CONTEXT ( 'NONE', 'WORKASPACE' ) );
#127 = CC_DESIGN_PERSON_AND_ORGANIZATION_ASSIGNMENT ( #16, #27, ( #164 ) ) ;
#128 = COORDINATED_UNIVERSAL_TIME_OFFSET ( 1, 0, .AHEAD. ) ;
#129 = CC_DESIGN_SECURITY_CLASSIFICATION ( #1, ( #166 ) ) ;
#130 = ADVANCED_FACE ( 'NONE', ( #194 ), #71, .F. ) ;
#131 = APPROVAL_STATUS ( 'not_yet_approved' ) ;
#132 = EDGE_LOOP ( 'NONE', ( #84 ) ) ;
#133 = CARTESIAN_POINT ( 'NONE',  ( 0.0000000000000000000, 0.0000000000000000000, 0.0000000000000000000 ) ) ;
#134 = CARTESIAN_POINT ( 'NONE',  ( -3.206816838010677856E-31, 1.124799933034399755E-32, -9.184688465421452921E-17 ) ) ;
#135 = TOROIDAL_SURFACE ( 'NONE', #72, 10.50000000000000178, 8.000000000000000000 ) ;
#136 = CARTESIAN_POINT ( 'NONE',  ( 2.500000000000000000, 0.0000000000000000000, -8.728703347107833388E-15 ) ) ;
#137 = CC_DESIGN_PERSON_AND_ORGANIZATION_ASSIGNMENT ( #148, #197, ( #34 ) ) ;
#138 = DIRECTION ( 'NONE',  ( 4.275831445896958607E-31, 1.000000000000000000, 1.224646799147353207E-16 ) ) ;
#139 = FACE_OUTER_BOUND ( 'NONE', #48, .T. ) ;
#140 = ADVANCED_FACE ( 'NONE', ( #38, #24 ), #192, .T. ) ;
#141 = LOCAL_TIME ( 7, 36, 47.00000000000000000, #65 ) ;
#142 = DATE_AND_TIME ( #216, #33 ) ;
#143 = CALENDAR_DATE ( 2021, 10, 11 ) ;
#144 = ADVANCED_BREP_SHAPE_REPRESENTATION ( '63832', ( #206, #58, #200 ), #126 ) ;
#145 = PERSON_AND_ORGANIZATION_ROLE ( 'classification_officer' ) ;
#146 = VERTEX_POINT ( 'NONE', #198 ) ;
#147 = EDGE_CURVE ( 'NONE', #43, #43, #153, .T. ) ;
#148 = PERSON_AND_ORGANIZATION ( #220, #109 ) ;
#150 = APPROVAL ( #45, 'UNSPECIFIED' ) ;
#149 = DATE_TIME_ROLE ( 'classification_date' ) ;
#151 = ORIENTED_EDGE ( 'NONE', *, *, #147, .F. ) ;
#152 = AXIS2_PLACEMENT_3D ( 'NONE', #10, #213, #195 ) ;
#153 = CIRCLE ( 'NONE', #113, 2.999999999999999112 ) ;
#154 = ORIENTED_EDGE ( 'NONE', *, *, #147, .T. ) ;
#155 = DESIGN_CONTEXT ( 'detailed design', #18, 'design' ) ;
#156 = EDGE_LOOP ( 'NONE', ( #207 ) ) ;
#157 = APPROVAL_DATE_TIME ( #204, #171 ) ;
#158 = ORIENTED_EDGE ( 'NONE', *, *, #100, .T. ) ;
#159 = DIRECTION ( 'NONE',  ( 3.491481338843133355E-15, -0.0000000000000000000, 1.000000000000000000 ) ) ;
#160 = FACE_OUTER_BOUND ( 'NONE', #51, .T. ) ;
#161 = DIRECTION ( 'NONE',  ( -1.000000000000000000, 0.0000000000000000000, 3.469446951953615372E-15 ) ) ;
#162 = CC_DESIGN_APPROVAL ( #150, ( #166 ) ) ;
#163 = DIRECTION ( 'NONE',  ( -3.491481338843133355E-15, 1.224646799147353207E-16, -1.000000000000000000 ) ) ;
#164 = PRODUCT ( '63832', '63832', '', ( #223 ) ) ;
#165 = CYLINDRICAL_SURFACE ( 'NONE', #118, 2.500000000000000444 ) ;
#166 = PRODUCT_DEFINITION_FORMATION_WITH_SPECIFIED_SOURCE ( 'ANY', '', #164, .NOT_KNOWN. ) ;
#167 = SECURITY_CLASSIFICATION_LEVEL ( 'unclassified' ) ;
#168 = CARTESIAN_POINT ( 'NONE',  ( 0.0000000000000000000, 0.0000000000000000000, 0.0000000000000000000 ) ) ;
#169 = DIRECTION ( 'NONE',  ( 1.000000000000000000, 0.0000000000000000000, 0.0000000000000000000 ) ) ;
#170 = SHAPE_DEFINITION_REPRESENTATION ( #5, #144 ) ;
#171 = APPROVAL ( #131, 'UNSPECIFIED' ) ;
#172 = EDGE_LOOP ( 'NONE', ( #187 ) ) ;
#173 = CARTESIAN_POINT ( 'NONE',  ( 0.0000000000000000000, 0.0000000000000000000, 0.0000000000000000000 ) ) ;
#174 = DIRECTION ( 'NONE',  ( 1.000000000000000000, 0.0000000000000000000, -3.469446951953613400E-15 ) ) ;
#175 = APPROVAL ( #182, 'UNSPECIFIED' ) ;
#176 = DIRECTION ( 'NONE',  ( 1.000000000000000000, 0.0000000000000000000, -3.469446951953613400E-15 ) ) ;
#177 = DIRECTION ( 'NONE',  ( 0.0000000000000000000, 1.000000000000000000, 0.0000000000000000000 ) ) ;
#178 = AXIS2_PLACEMENT_3D ( 'NONE', #102, #105, #174 ) ;
#179 = APPROVAL_PERSON_ORGANIZATION ( #112, #175, #217 ) ;
#180 = DIRECTION ( 'NONE',  ( 3.491481338843133355E-15, -0.0000000000000000000, 1.000000000000000000 ) ) ;
#181 = DIRECTION ( 'NONE',  ( -4.275831445896958607E-31, -1.000000000000000000, -1.224646799147353207E-16 ) ) ;
#182 = APPROVAL_STATUS ( 'not_yet_approved' ) ;
#183 = APPLICATION_PROTOCOL_DEFINITION ( 'international standard', 'config_control_design', 1994, #184 ) ;
#184 = APPLICATION_CONTEXT ( 'configuration controlled 3d designs of mechanical parts and assemblies' ) ;
#185 = PRODUCT_RELATED_PRODUCT_CATEGORY ( 'detail', '', ( #164 ) ) ;
#186 = CC_DESIGN_PERSON_AND_ORGANIZATION_ASSIGNMENT ( #14, #145, ( #1 ) ) ;
#187 = ORIENTED_EDGE ( 'NONE', *, *, #121, .F. ) ;
#188 = CIRCLE ( 'NONE', #178, 2.500000000000000444 ) ;
#189 = CC_DESIGN_DATE_AND_TIME_ASSIGNMENT ( #124, #149, ( #1 ) ) ;
#190 = DIRECTION ( 'NONE',  ( 1.000000000000000000, 0.0000000000000000000, -3.491481338843133355E-15 ) ) ;
#191 = AXIS2_PLACEMENT_3D ( 'NONE', #173, #3, #88 ) ;
#192 = CONICAL_SURFACE ( 'NONE', #116, 2.500000000000001776, 0.7853981633974479459 ) ;
#193 = CARTESIAN_POINT ( 'NONE',  ( 2.717727938016405924E-14, 0.0000000000000000000, 7.783882181415001433 ) ) ;
#194 = FACE_OUTER_BOUND ( 'NONE', #132, .T. ) ;
#195 = DIRECTION ( 'NONE',  ( -4.275831445896958607E-31, -1.000000000000000000, -1.224646799147353207E-16 ) ) ;
#196 = DIRECTION ( 'NONE',  ( 1.000000000000000000, 0.0000000000000000000, -3.491481338843133355E-15 ) ) ;
#197 = PERSON_AND_ORGANIZATION_ROLE ( 'creator' ) ;
#198 = CARTESIAN_POINT ( 'NONE',  ( 2.500000000000017764, 0.0000000000000000000, 4.999999999999990230 ) ) ;
#199 = CIRCLE ( 'NONE', #62, 2.500000000000000444 ) ;
#200 = AXIS2_PLACEMENT_3D ( 'NONE', #168, #110, #169 ) ;
#201 =( NAMED_UNIT ( * ) SI_UNIT ( $, .STERADIAN. ) SOLID_ANGLE_UNIT ( ) );
#202 = DATE_AND_TIME ( #79, #83 ) ;
#203 = DATE_AND_TIME ( #41, #29 ) ;
#204 = DATE_AND_TIME ( #19, #141 ) ;
#205 = EDGE_LOOP ( 'NONE', ( #151 ) ) ;
#206 = MANIFOLD_SOLID_BREP ( 'Corps-Déplacer/Copier1[1]', #125 ) ;
#207 = ORIENTED_EDGE ( 'NONE', *, *, #121, .T. ) ;
#208 = EDGE_LOOP ( 'NONE', ( #6 ) ) ;
#209 = AXIS2_PLACEMENT_3D ( 'NONE', #75, #39, #181 ) ;
#210 = PLANE ( 'NONE',  #50 ) ;
#211 = DIRECTION ( 'NONE',  ( -3.491481338843133355E-15, 1.224646799147353207E-16, -1.000000000000000000 ) ) ;
#212 = VERTEX_POINT ( 'NONE', #54 ) ;
#213 = DIRECTION ( 'NONE',  ( 3.491481338843133355E-15, -1.224646799147353207E-16, 1.000000000000000000 ) ) ;
#214 = CARTESIAN_POINT ( 'NONE',  ( 1.745740669421566362E-14, 0.0000000000000000000, 4.999999999999999112 ) ) ;
#215 = AXIS2_PLACEMENT_3D ( 'NONE', #133, #123, #21 ) ;
#216 = CALENDAR_DATE ( 2021, 10, 11 ) ;
#217 = APPROVAL_ROLE ( '' ) ;
#218 = CC_DESIGN_DATE_AND_TIME_ASSIGNMENT ( #142, #17, ( #34 ) ) ;
#219 = CARTESIAN_POINT ( 'NONE',  ( -2.999999999999972022, 0.0000000000000000000, 7.783882181415012091 ) ) ;
#220 = PERSON ( 'UNSPECIFIED', 'UNSPECIFIED', 'UNSPECIFIED', ('UNSPECIFIED'), ('UNSPECIFIED'), ('UNSPECIFIED') ) ;
#221 = APPROVAL_PERSON_ORGANIZATION ( #76, #150, #61 ) ;
#222 = CC_DESIGN_PERSON_AND_ORGANIZATION_ASSIGNMENT ( #107, #25, ( #166 ) ) ;
#223 = MECHANICAL_CONTEXT ( 'NONE', #184, 'mechanical' ) ;
ENDSEC;
END-ISO-10303-21;
