ISO-10303-21;
HEADER;
FILE_DESCRIPTION (( 'STEP AP203' ),
    '1' );
FILE_NAME ('63831.step',
    '2021-11-10T06:36:46',
    ( '' ),
    ( '' ),
    'SwSTEP 2.0',
    'SolidWorks 2019',
    '' );
FILE_SCHEMA (( 'CONFIG_CONTROL_DESIGN' ));
ENDSEC;

DATA;
#1 = APPROVAL_STATUS ( 'not_yet_approved' ) ;
#2 = AXIS2_PLACEMENT_3D ( 'NONE', #166, #120, #97 ) ;
#3 = VERTEX_POINT ( 'NONE', #193 ) ;
#4 = PERSON_AND_ORGANIZATION_ROLE ( 'design_owner' ) ;
#5 = CC_DESIGN_PERSON_AND_ORGANIZATION_ASSIGNMENT ( #212, #57, ( #9 ) ) ;
#6 = CIRCLE ( 'NONE', #221, 3.000000000000001776 ) ;
#7 = SECURITY_CLASSIFICATION ( '', '', #105 ) ;
#8 = DIRECTION ( 'NONE',  ( 1.000000000000000000, 0.0000000000000000000, 0.0000000000000000000 ) ) ;
#9 = PRODUCT_DEFINITION ( 'UNKNOWN', '', #23, #145 ) ;
#10 = ORIENTED_EDGE ( 'NONE', *, *, #220, .F. ) ;
#11 = AXIS2_PLACEMENT_3D ( 'NONE', #222, #46, #96 ) ;
#12 = DIRECTION ( 'NONE',  ( 4.275831445896958607E-31, 1.000000000000000000, 1.224646799147353207E-16 ) ) ;
#13 = DIRECTION ( 'NONE',  ( 1.000000000000000000, 0.0000000000000000000, -3.491481338843133355E-15 ) ) ;
#14 = DIRECTION ( 'NONE',  ( -3.491481338843133355E-15, 1.224646799147353207E-16, -1.000000000000000000 ) ) ;
#15 = AXIS2_PLACEMENT_3D ( 'NONE', #171, #86, #101 ) ;
#16 = LOCAL_TIME ( 7, 36, 46.00000000000000000, #150 ) ;
#17 = DIRECTION ( 'NONE',  ( 1.000000000000000000, 0.0000000000000000000, -3.469446951953616161E-15 ) ) ;
#18 = DIRECTION ( 'NONE',  ( 4.275831445896958607E-31, 1.000000000000000000, 1.224646799147353207E-16 ) ) ;
#19 = DATE_AND_TIME ( #191, #26 ) ;
#20 = VERTEX_POINT ( 'NONE', #174 ) ;
#21 = CARTESIAN_POINT ( 'NONE',  ( -2.999999999999972022, 0.0000000000000000000, 7.881937314617178281 ) ) ;
#22 = CIRCLE ( 'NONE', #2, 2.999999999999999112 ) ;
#23 = PRODUCT_DEFINITION_FORMATION_WITH_SPECIFIED_SOURCE ( 'ANY', '', #75, .NOT_KNOWN. ) ;
#24 = APPROVAL_STATUS ( 'not_yet_approved' ) ;
#25 = APPROVAL_ROLE ( '' ) ;
#26 = LOCAL_TIME ( 7, 36, 46.00000000000000000, #53 ) ;
#27 = ORIENTED_EDGE ( 'NONE', *, *, #74, .F. ) ;
#28 = EDGE_LOOP ( 'NONE', ( #122 ) ) ;
#29 = DIRECTION ( 'NONE',  ( -4.275831445896958607E-31, -1.000000000000000000, -1.224646799147353207E-16 ) ) ;
#30 = LOCAL_TIME ( 7, 36, 46.00000000000000000, #196 ) ;
#31 = CARTESIAN_POINT ( 'NONE',  ( 1.571166602479410010E-14, 2.249639673992782854E-32, 4.500000000000000000 ) ) ;
#32 = DIRECTION ( 'NONE',  ( 0.0000000000000000000, 1.000000000000000000, 0.0000000000000000000 ) ) ;
#33 = DIRECTION ( 'NONE',  ( 3.491481338843133355E-15, -0.0000000000000000000, 1.000000000000000000 ) ) ;
#34 = APPROVAL_PERSON_ORGANIZATION ( #77, #54, #25 ) ;
#35 = FACE_OUTER_BOUND ( 'NONE', #215, .T. ) ;
#36 = ADVANCED_FACE ( 'NONE', ( #85 ), #99, .F. ) ;
#37 = DATE_AND_TIME ( #109, #188 ) ;
#38 = PERSON_AND_ORGANIZATION ( #178, #106 ) ;
#39 = CLOSED_SHELL ( 'NONE', ( #48, #71, #84 ) ) ;
#40 = ADVANCED_FACE ( 'NONE', ( #154 ), #49, .F. ) ;
#41 = APPROVAL_STATUS ( 'not_yet_approved' ) ;
#42 = EDGE_LOOP ( 'NONE', ( #115 ) ) ;
#43 = PERSON_AND_ORGANIZATION_ROLE ( 'classification_officer' ) ;
#44 = APPROVAL ( #24, 'UNSPECIFIED' ) ;
#45 = EDGE_LOOP ( 'NONE', ( #180 ) ) ;
#46 = DIRECTION ( 'NONE',  ( -3.491481338843133355E-15, 1.224646799147353207E-16, -1.000000000000000000 ) ) ;
#47 = CARTESIAN_POINT ( 'NONE',  ( 1.745740669421566678E-13, -6.123233995736766085E-15, 50.00000000000000000 ) ) ;
#48 = ADVANCED_FACE ( 'NONE', ( #61 ), #167, .T. ) ;
#49 = PLANE ( 'NONE',  #76 ) ;
#50 = DIRECTION ( 'NONE',  ( -3.491481338843133355E-15, 1.224646799147353207E-16, -1.000000000000000000 ) ) ;
#51 = DIRECTION ( 'NONE',  ( -3.491481338843133355E-15, 1.224646799147353207E-16, -1.000000000000000000 ) ) ;
#52 = APPROVAL_PERSON_ORGANIZATION ( #157, #211, #67 ) ;
#53 = COORDINATED_UNIVERSAL_TIME_OFFSET ( 1, 0, .AHEAD. ) ;
#54 = APPROVAL ( #41, 'UNSPECIFIED' ) ;
#55 = CARTESIAN_POINT ( 'NONE',  ( 0.0000000000000000000, 0.0000000000000000000, 0.0000000000000000000 ) ) ;
#56 = APPROVAL_DATE_TIME ( #19, #44 ) ;
#57 = PERSON_AND_ORGANIZATION_ROLE ( 'creator' ) ;
#58 = EDGE_LOOP ( 'NONE', ( #200 ) ) ;
#59 = EDGE_LOOP ( 'NONE', ( #162 ) ) ;
#60 = CARTESIAN_POINT ( 'NONE',  ( 1.728283262727351074E-13, -6.062001655779398511E-15, 49.50000000000000000 ) ) ;
#61 = FACE_OUTER_BOUND ( 'NONE', #94, .T. ) ;
#62 = CYLINDRICAL_SURFACE ( 'NONE', #100, 2.999999999999999112 ) ;
#63 = AXIS2_PLACEMENT_3D ( 'NONE', #139, #141, #223 ) ;
#64 = CC_DESIGN_APPROVAL ( #211, ( #23 ) ) ;
#65 = CARTESIAN_POINT ( 'NONE',  ( 0.0000000000000000000, 0.0000000000000000000, 0.0000000000000000000 ) ) ;
#66 = DIRECTION ( 'NONE',  ( -4.275831445896958607E-31, -1.000000000000000000, -1.224646799147353207E-16 ) ) ;
#67 = APPROVAL_ROLE ( '' ) ;
#68 = CIRCLE ( 'NONE', #197, 2.249999999999998668 ) ;
#69 = PERSON_AND_ORGANIZATION_ROLE ( 'creator' ) ;
#70 = VERTEX_POINT ( 'NONE', #21 ) ;
#71 = ADVANCED_FACE ( 'NONE', ( #201, #81 ), #182, .T. ) ;
#72 = APPLICATION_PROTOCOL_DEFINITION ( 'international standard', 'config_control_design', 1994, #90 ) ;
#73 = CARTESIAN_POINT ( 'NONE',  ( 1.728283262727351074E-13, 2.999999999999995559, 49.50000000000000000 ) ) ;
#74 = EDGE_CURVE ( 'NONE', #173, #173, #92, .T. ) ;
#75 = PRODUCT ( '63831', '63831', '', ( #207 ) ) ;
#76 = AXIS2_PLACEMENT_3D ( 'NONE', #156, #14, #12 ) ;
#77 = PERSON_AND_ORGANIZATION ( #178, #106 ) ;
#78 = APPLICATION_CONTEXT ( 'configuration controlled 3d designs of mechanical parts and assemblies' ) ;
#79 = ORIENTED_EDGE ( 'NONE', *, *, #220, .T. ) ;
#80 = DIRECTION ( 'NONE',  ( 3.491481338843133355E-15, -0.0000000000000000000, 1.000000000000000000 ) ) ;
#81 = FACE_OUTER_BOUND ( 'NONE', #163, .T. ) ;
#82 = CARTESIAN_POINT ( 'NONE',  ( -3.206816838010677856E-31, 1.124799933034399755E-32, -9.184688465421452921E-17 ) ) ;
#83 = LOCAL_TIME ( 7, 36, 46.00000000000000000, #142 ) ;
#84 = ADVANCED_FACE ( 'NONE', ( #204 ), #218, .F. ) ;
#85 = FACE_OUTER_BOUND ( 'NONE', #114, .T. ) ;
#86 = DIRECTION ( 'NONE',  ( 3.491481338843133355E-15, -0.0000000000000000000, 1.000000000000000000 ) ) ;
#87 = APPLICATION_PROTOCOL_DEFINITION ( 'international standard', 'config_control_design', 1994, #78 ) ;
#88 = AXIS2_PLACEMENT_3D ( 'NONE', #47, #51, #32 ) ;
#89 =( LENGTH_UNIT ( ) NAMED_UNIT ( * ) SI_UNIT ( .MILLI., .METRE. ) );
#90 = APPLICATION_CONTEXT ( 'configuration controlled 3d designs of mechanical parts and assemblies' ) ;
#91 = SHAPE_DEFINITION_REPRESENTATION ( #149, #205 ) ;
#92 = CIRCLE ( 'NONE', #164, 2.250000000000000000 ) ;
#93 = EDGE_LOOP ( 'NONE', ( #151 ) ) ;
#94 = EDGE_LOOP ( 'NONE', ( #111 ) ) ;
#95 = CC_DESIGN_APPROVAL ( #54, ( #7 ) ) ;
#96 = DIRECTION ( 'NONE',  ( 0.0000000000000000000, 1.000000000000000000, 0.0000000000000000000 ) ) ;
#97 = DIRECTION ( 'NONE',  ( -1.000000000000000000, 0.0000000000000000000, 3.469446951953615372E-15 ) ) ;
#98 = EDGE_CURVE ( 'NONE', #20, #20, #68, .T. ) ;
#99 = PLANE ( 'NONE',  #187 ) ;
#100 = AXIS2_PLACEMENT_3D ( 'NONE', #203, #50, #18 ) ;
#101 = DIRECTION ( 'NONE',  ( 1.000000000000000000, 0.0000000000000000000, -3.491481338843133750E-15 ) ) ;
#102 = DIRECTION ( 'NONE',  ( 3.491481338843133355E-15, -0.0000000000000000000, 1.000000000000000000 ) ) ;
#103 = DATE_AND_TIME ( #206, #83 ) ;
#104 = ADVANCED_FACE ( 'NONE', ( #136, #134 ), #62, .T. ) ;
#105 = SECURITY_CLASSIFICATION_LEVEL ( 'unclassified' ) ;
#106 = ORGANIZATION ( 'UNSPECIFIED', 'UNSPECIFIED', '' ) ;
#107 = UNCERTAINTY_MEASURE_WITH_UNIT (LENGTH_MEASURE( 1.000000000000000082E-05 ), #89, 'distance_accuracy_value', 'NONE');
#108 = DIRECTION ( 'NONE',  ( 0.0000000000000000000, 0.0000000000000000000, 1.000000000000000000 ) ) ;
#109 = CALENDAR_DATE ( 2021, 10, 11 ) ;
#110 = APPROVAL_DATE_TIME ( #179, #54 ) ;
#111 = ORIENTED_EDGE ( 'NONE', *, *, #170, .T. ) ;
#112 = CONICAL_SURFACE ( 'NONE', #88, 2.500000000000001776, 0.7853981633974479459 ) ;
#113 = AXIS2_PLACEMENT_3D ( 'NONE', #82, #119, #29 ) ;
#114 = EDGE_LOOP ( 'NONE', ( #129 ) ) ;
#115 = ORIENTED_EDGE ( 'NONE', *, *, #116, .T. ) ;
#116 = EDGE_CURVE ( 'NONE', #70, #70, #22, .T. ) ;
#117 = DIRECTION ( 'NONE',  ( 0.0000000000000000000, 1.000000000000000000, 0.0000000000000000000 ) ) ;
#118 = TOROIDAL_SURFACE ( 'NONE', #15, 10.25000000000000178, 8.000000000000001776 ) ;
#119 = DIRECTION ( 'NONE',  ( 3.491481338843133355E-15, -1.224646799147353207E-16, 1.000000000000000000 ) ) ;
#120 = DIRECTION ( 'NONE',  ( -3.491481338843133355E-15, 0.0000000000000000000, -1.000000000000000000 ) ) ;
#121 = FACE_OUTER_BOUND ( 'NONE', #42, .T. ) ;
#122 = ORIENTED_EDGE ( 'NONE', *, *, #116, .F. ) ;
#123 = CARTESIAN_POINT ( 'NONE',  ( 1.745740669421566678E-13, 2.499999999999995559, 50.00000000000000000 ) ) ;
#124 = ADVANCED_FACE ( 'NONE', ( #35, #202 ), #112, .T. ) ;
#125 = APPROVAL_PERSON_ORGANIZATION ( #190, #44, #175 ) ;
#126 = EDGE_CURVE ( 'NONE', #194, #194, #214, .T. ) ;
#127 = CARTESIAN_POINT ( 'NONE',  ( 2.250000000000000000, 0.0000000000000000000, -7.855833012397050049E-15 ) ) ;
#128 = COORDINATED_UNIVERSAL_TIME_OFFSET ( 1, 0, .AHEAD. ) ;
#129 = ORIENTED_EDGE ( 'NONE', *, *, #98, .F. ) ;
#130 =( GEOMETRIC_REPRESENTATION_CONTEXT ( 3 ) GLOBAL_UNCERTAINTY_ASSIGNED_CONTEXT ( ( #107 ) ) GLOBAL_UNIT_ASSIGNED_CONTEXT ( ( #89, #144, #146 ) ) REPRESENTATION_CONTEXT ( 'NONE', 'WORKASPACE' ) );
#131 = MANIFOLD_SOLID_BREP ( 'Corps-Déplacer/Copier1[2]', #39 ) ;
#132 = EDGE_LOOP ( 'NONE', ( #79 ) ) ;
#133 = CC_DESIGN_APPROVAL ( #44, ( #9 ) ) ;
#134 = FACE_OUTER_BOUND ( 'NONE', #28, .T. ) ;
#135 = MANIFOLD_SOLID_BREP ( 'Corps-Déplacer/Copier1[1]', #183 ) ;
#136 = FACE_OUTER_BOUND ( 'NONE', #132, .T. ) ;
#137 = ADVANCED_FACE ( 'NONE', ( #140, #121 ), #118, .F. ) ;
#138 = CIRCLE ( 'NONE', #152, 2.249999999999998668 ) ;
#139 = CARTESIAN_POINT ( 'NONE',  ( 1.571166602479410010E-14, 2.249639673992782854E-32, 4.500000000000000000 ) ) ;
#140 = FACE_OUTER_BOUND ( 'NONE', #45, .T. ) ;
#141 = DIRECTION ( 'NONE',  ( 3.491481338843133355E-15, -1.224646799147353207E-16, 1.000000000000000000 ) ) ;
#142 = COORDINATED_UNIVERSAL_TIME_OFFSET ( 1, 0, .AHEAD. ) ;
#143 = PERSON_AND_ORGANIZATION_ROLE ( 'design_supplier' ) ;
#144 =( NAMED_UNIT ( * ) PLANE_ANGLE_UNIT ( ) SI_UNIT ( $, .RADIAN. ) );
#145 = DESIGN_CONTEXT ( 'detailed design', #90, 'design' ) ;
#146 =( NAMED_UNIT ( * ) SI_UNIT ( $, .STERADIAN. ) SOLID_ANGLE_UNIT ( ) );
#147 = DATE_TIME_ROLE ( 'classification_date' ) ;
#148 = CC_DESIGN_PERSON_AND_ORGANIZATION_ASSIGNMENT ( #199, #43, ( #7 ) ) ;
#149 = PRODUCT_DEFINITION_SHAPE ( 'NONE', 'NONE',  #9 ) ;
#150 = COORDINATED_UNIVERSAL_TIME_OFFSET ( 1, 0, .AHEAD. ) ;
#151 = ORIENTED_EDGE ( 'NONE', *, *, #126, .T. ) ;
#152 = AXIS2_PLACEMENT_3D ( 'NONE', #217, #33, #17 ) ;
#153 = ORIENTED_EDGE ( 'NONE', *, *, #170, .F. ) ;
#154 = FACE_OUTER_BOUND ( 'NONE', #58, .T. ) ;
#155 = CARTESIAN_POINT ( 'NONE',  ( 1.571166602479409694E-14, 0.0000000000000000000, 4.499999999999999112 ) ) ;
#156 = CARTESIAN_POINT ( 'NONE',  ( 1.745740669421566678E-13, 1.874699728327314346E-32, 50.00000000000000000 ) ) ;
#157 = PERSON_AND_ORGANIZATION ( #178, #106 ) ;
#158 = PERSON_AND_ORGANIZATION ( #178, #106 ) ;
#159 = PERSON_AND_ORGANIZATION ( #178, #106 ) ;
#160 = CC_DESIGN_PERSON_AND_ORGANIZATION_ASSIGNMENT ( #38, #143, ( #23 ) ) ;
#161 = CALENDAR_DATE ( 2021, 10, 11 ) ;
#162 = ORIENTED_EDGE ( 'NONE', *, *, #74, .T. ) ;
#163 = EDGE_LOOP ( 'NONE', ( #153 ) ) ;
#164 = AXIS2_PLACEMENT_3D ( 'NONE', #65, #219, #13 ) ;
#165 = DIRECTION ( 'NONE',  ( -3.491481338843133355E-15, 1.224646799147353207E-16, -1.000000000000000000 ) ) ;
#166 = CARTESIAN_POINT ( 'NONE',  ( 2.751963704791719872E-14, 0.0000000000000000000, 7.881937314617167623 ) ) ;
#167 = PLANE ( 'NONE',  #63 ) ;
#168 = AXIS2_PLACEMENT_3D ( 'NONE', #55, #108, #8 ) ;
#169 = DIRECTION ( 'NONE',  ( 1.000000000000000000, 0.0000000000000000000, -3.491481338843133355E-15 ) ) ;
#170 = EDGE_CURVE ( 'NONE', #3, #3, #138, .T. ) ;
#171 = CARTESIAN_POINT ( 'NONE',  ( 1.571166602479410010E-14, 0.0000000000000000000, 4.500000000000000000 ) ) ;
#172 = APPROVAL_DATE_TIME ( #103, #211 ) ;
#173 = VERTEX_POINT ( 'NONE', #127 ) ;
#174 = CARTESIAN_POINT ( 'NONE',  ( 2.250000000000014211, 0.0000000000000000000, 4.499999999999991118 ) ) ;
#175 = APPROVAL_ROLE ( '' ) ;
#176 = DATE_TIME_ROLE ( 'creation_date' ) ;
#177 = CC_DESIGN_DATE_AND_TIME_ASSIGNMENT ( #198, #147, ( #7 ) ) ;
#178 = PERSON ( 'UNSPECIFIED', 'UNSPECIFIED', 'UNSPECIFIED', ('UNSPECIFIED'), ('UNSPECIFIED'), ('UNSPECIFIED') ) ;
#179 = DATE_AND_TIME ( #213, #16 ) ;
#180 = ORIENTED_EDGE ( 'NONE', *, *, #98, .T. ) ;
#181 = EDGE_LOOP ( 'NONE', ( #27 ) ) ;
#182 = CYLINDRICAL_SURFACE ( 'NONE', #208, 2.249999999999999556 ) ;
#183 = CLOSED_SHELL ( 'NONE', ( #104, #124, #40, #137, #36 ) ) ;
#184 = CARTESIAN_POINT ( 'NONE',  ( 0.0000000000000000000, 0.0000000000000000000, 0.0000000000000000000 ) ) ;
#185 = CC_DESIGN_PERSON_AND_ORGANIZATION_ASSIGNMENT ( #158, #69, ( #23 ) ) ;
#186 = DIRECTION ( 'NONE',  ( 3.491481338843133355E-15, -1.224646799147353207E-16, 1.000000000000000000 ) ) ;
#187 = AXIS2_PLACEMENT_3D ( 'NONE', #31, #186, #66 ) ;
#188 = LOCAL_TIME ( 7, 36, 46.00000000000000000, #128 ) ;
#189 = DIRECTION ( 'NONE',  ( 1.000000000000000000, 0.0000000000000000000, -3.469446951953616161E-15 ) ) ;
#190 = PERSON_AND_ORGANIZATION ( #178, #106 ) ;
#191 = CALENDAR_DATE ( 2021, 10, 11 ) ;
#192 = PRODUCT_RELATED_PRODUCT_CATEGORY ( 'detail', '', ( #75 ) ) ;
#193 = CARTESIAN_POINT ( 'NONE',  ( 2.250000000000014211, 0.0000000000000000000, 4.499999999999991118 ) ) ;
#194 = VERTEX_POINT ( 'NONE', #123 ) ;
#195 = CC_DESIGN_DATE_AND_TIME_ASSIGNMENT ( #37, #176, ( #9 ) ) ;
#196 = COORDINATED_UNIVERSAL_TIME_OFFSET ( 1, 0, .AHEAD. ) ;
#197 = AXIS2_PLACEMENT_3D ( 'NONE', #155, #102, #189 ) ;
#198 = DATE_AND_TIME ( #161, #30 ) ;
#199 = PERSON_AND_ORGANIZATION ( #178, #106 ) ;
#200 = ORIENTED_EDGE ( 'NONE', *, *, #126, .F. ) ;
#201 = FACE_OUTER_BOUND ( 'NONE', #59, .T. ) ;
#202 = FACE_BOUND ( 'NONE', #93, .T. ) ;
#203 = CARTESIAN_POINT ( 'NONE',  ( 0.0000000000000000000, 0.0000000000000000000, 0.0000000000000000000 ) ) ;
#204 = FACE_OUTER_BOUND ( 'NONE', #181, .T. ) ;
#205 = ADVANCED_BREP_SHAPE_REPRESENTATION ( '63831', ( #135, #131, #168 ), #130 ) ;
#206 = CALENDAR_DATE ( 2021, 10, 11 ) ;
#207 = MECHANICAL_CONTEXT ( 'NONE', #78, 'mechanical' ) ;
#208 = AXIS2_PLACEMENT_3D ( 'NONE', #184, #80, #169 ) ;
#209 = VERTEX_POINT ( 'NONE', #73 ) ;
#210 = CC_DESIGN_SECURITY_CLASSIFICATION ( #7, ( #23 ) ) ;
#211 = APPROVAL ( #1, 'UNSPECIFIED' ) ;
#212 = PERSON_AND_ORGANIZATION ( #178, #106 ) ;
#213 = CALENDAR_DATE ( 2021, 10, 11 ) ;
#214 = CIRCLE ( 'NONE', #11, 2.500000000000001776 ) ;
#215 = EDGE_LOOP ( 'NONE', ( #10 ) ) ;
#216 = CC_DESIGN_PERSON_AND_ORGANIZATION_ASSIGNMENT ( #159, #4, ( #75 ) ) ;
#217 = CARTESIAN_POINT ( 'NONE',  ( 1.571166602479409694E-14, 0.0000000000000000000, 4.499999999999999112 ) ) ;
#218 = PLANE ( 'NONE',  #113 ) ;
#219 = DIRECTION ( 'NONE',  ( 3.491481338843133355E-15, -0.0000000000000000000, 1.000000000000000000 ) ) ;
#220 = EDGE_CURVE ( 'NONE', #209, #209, #6, .T. ) ;
#221 = AXIS2_PLACEMENT_3D ( 'NONE', #60, #165, #117 ) ;
#222 = CARTESIAN_POINT ( 'NONE',  ( 1.745740669421566678E-13, -6.123233995736766085E-15, 50.00000000000000000 ) ) ;
#223 = DIRECTION ( 'NONE',  ( -4.275831445896958607E-31, -1.000000000000000000, -1.224646799147353207E-16 ) ) ;
ENDSEC;
END-ISO-10303-21;
