ISO-10303-21;
HEADER;
FILE_DESCRIPTION (( 'STEP AP203' ),
    '1' );
FILE_NAME ('63830.step',
    '2021-11-10T06:36:46',
    ( '' ),
    ( '' ),
    'SwSTEP 2.0',
    'SolidWorks 2019',
    '' );
FILE_SCHEMA (( 'CONFIG_CONTROL_DESIGN' ));
ENDSEC;

DATA;
#1 = EDGE_CURVE ( 'NONE', #200, #200, #218, .T. ) ;
#2 = AXIS2_PLACEMENT_3D ( 'NONE', #134, #107, #171 ) ;
#3 = FACE_OUTER_BOUND ( 'NONE', #113, .T. ) ;
#4 = FACE_OUTER_BOUND ( 'NONE', #14, .T. ) ;
#5 = DIRECTION ( 'NONE',  ( 1.000000000000000000, 0.0000000000000000000, -3.469446951953614189E-15 ) ) ;
#6 = AXIS2_PLACEMENT_3D ( 'NONE', #25, #152, #190 ) ;
#7 = CYLINDRICAL_SURFACE ( 'NONE', #144, 2.000000000000000000 ) ;
#8 = DIRECTION ( 'NONE',  ( -3.491481338843133355E-15, 1.224646799147353207E-16, -1.000000000000000000 ) ) ;
#9 = CC_DESIGN_PERSON_AND_ORGANIZATION_ASSIGNMENT ( #180, #157, ( #150 ) ) ;
#10 = PERSON_AND_ORGANIZATION_ROLE ( 'creator' ) ;
#11 = VERTEX_POINT ( 'NONE', #176 ) ;
#12 = CARTESIAN_POINT ( 'NONE',  ( 0.0000000000000000000, 0.0000000000000000000, 0.0000000000000000000 ) ) ;
#13 = EDGE_CURVE ( 'NONE', #142, #142, #77, .T. ) ;
#14 = EDGE_LOOP ( 'NONE', ( #165 ) ) ;
#15 = LOCAL_TIME ( 7, 36, 46.00000000000000000, #215 ) ;
#16 = ADVANCED_FACE ( 'NONE', ( #168 ), #88, .F. ) ;
#17 = APPROVAL_ROLE ( '' ) ;
#18 = FACE_OUTER_BOUND ( 'NONE', #167, .T. ) ;
#19 = CC_DESIGN_APPROVAL ( #68, ( #150 ) ) ;
#20 = CARTESIAN_POINT ( 'NONE',  ( 1.745740669421566678E-13, -6.123233995736766085E-15, 50.00000000000000000 ) ) ;
#21 = CC_DESIGN_PERSON_AND_ORGANIZATION_ASSIGNMENT ( #128, #35, ( #183 ) ) ;
#22 = DIRECTION ( 'NONE',  ( 3.491481338843133355E-15, -0.0000000000000000000, 1.000000000000000000 ) ) ;
#23 = DIRECTION ( 'NONE',  ( 1.000000000000000000, 0.0000000000000000000, -3.491481338843133355E-15 ) ) ;
#24 = CONICAL_SURFACE ( 'NONE', #162, 2.500000000000001776, 0.7853981633974479459 ) ;
#25 = CARTESIAN_POINT ( 'NONE',  ( 1.396592535537253342E-14, 2.249639673992782854E-32, 4.000000000000000000 ) ) ;
#26 = PERSON_AND_ORGANIZATION_ROLE ( 'design_owner' ) ;
#27 = DATE_AND_TIME ( #49, #15 ) ;
#28 = CIRCLE ( 'NONE', #48, 2.500000000000001776 ) ;
#29 = DIRECTION ( 'NONE',  ( 1.000000000000000000, 0.0000000000000000000, 0.0000000000000000000 ) ) ;
#30 =( NAMED_UNIT ( * ) PLANE_ANGLE_UNIT ( ) SI_UNIT ( $, .RADIAN. ) );
#31 = APPROVAL_STATUS ( 'not_yet_approved' ) ;
#32 = LOCAL_TIME ( 7, 36, 46.00000000000000000, #94 ) ;
#33 = ADVANCED_FACE ( 'NONE', ( #4, #139 ), #41, .F. ) ;
#34 = ADVANCED_FACE ( 'NONE', ( #76 ), #40, .F. ) ;
#35 = PERSON_AND_ORGANIZATION_ROLE ( 'classification_officer' ) ;
#36 = CIRCLE ( 'NONE', #174, 2.000000000000000000 ) ;
#37 = ORIENTED_EDGE ( 'NONE', *, *, #13, .F. ) ;
#38 = ORIENTED_EDGE ( 'NONE', *, *, #177, .T. ) ;
#39 = DIRECTION ( 'NONE',  ( -3.491481338843133355E-15, 1.224646799147353207E-16, -1.000000000000000000 ) ) ;
#40 = PLANE ( 'NONE',  #191 ) ;
#41 = TOROIDAL_SURFACE ( 'NONE', #159, 10.00000000000000178, 8.000000000000000000 ) ;
#42 = DIRECTION ( 'NONE',  ( -3.491481338843133355E-15, 1.224646799147353207E-16, -1.000000000000000000 ) ) ;
#43 = DIRECTION ( 'NONE',  ( 3.491481338843133355E-15, -0.0000000000000000000, 1.000000000000000000 ) ) ;
#44 = EDGE_CURVE ( 'NONE', #81, #81, #60, .T. ) ;
#45 = CARTESIAN_POINT ( 'NONE',  ( 1.396592535537253342E-14, 0.0000000000000000000, 4.000000000000000000 ) ) ;
#46 = PERSON_AND_ORGANIZATION ( #189, #135 ) ;
#47 = APPROVAL_DATE_TIME ( #196, #98 ) ;
#48 = AXIS2_PLACEMENT_3D ( 'NONE', #175, #8, #149 ) ;
#49 = CALENDAR_DATE ( 2021, 10, 11 ) ;
#50 = ADVANCED_FACE ( 'NONE', ( #18, #57 ), #24, .T. ) ;
#51 = AXIS2_PLACEMENT_3D ( 'NONE', #213, #22, #5 ) ;
#52 = ORIENTED_EDGE ( 'NONE', *, *, #1, .F. ) ;
#53 = MANIFOLD_SOLID_BREP ( 'Corps-Déplacer/Copier1[2]', #92 ) ;
#54 = CALENDAR_DATE ( 2021, 10, 11 ) ;
#55 = EDGE_LOOP ( 'NONE', ( #204 ) ) ;
#56 = EDGE_CURVE ( 'NONE', #96, #96, #36, .T. ) ;
#57 = FACE_BOUND ( 'NONE', #206, .T. ) ;
#58 = DESIGN_CONTEXT ( 'detailed design', #184, 'design' ) ;
#59 = DIRECTION ( 'NONE',  ( 3.491481338843133355E-15, -1.224646799147353207E-16, 1.000000000000000000 ) ) ;
#60 = CIRCLE ( 'NONE', #51, 2.000000000000000000 ) ;
#61 = PLANE ( 'NONE',  #2 ) ;
#62 = CARTESIAN_POINT ( 'NONE',  ( 1.728283262727351074E-13, -6.062001655779398511E-15, 49.50000000000000000 ) ) ;
#63 = COORDINATED_UNIVERSAL_TIME_OFFSET ( 1, 0, .AHEAD. ) ;
#64 = LOCAL_TIME ( 7, 36, 46.00000000000000000, #63 ) ;
#65 = ADVANCED_BREP_SHAPE_REPRESENTATION ( '63830', ( #125, #53, #210 ), #73 ) ;
#66 = DATE_AND_TIME ( #82, #32 ) ;
#67 = PERSON_AND_ORGANIZATION_ROLE ( 'design_supplier' ) ;
#68 = APPROVAL ( #124, 'UNSPECIFIED' ) ;
#69 = APPROVAL ( #70, 'UNSPECIFIED' ) ;
#70 = APPROVAL_STATUS ( 'not_yet_approved' ) ;
#71 = EDGE_LOOP ( 'NONE', ( #87 ) ) ;
#72 = ORIENTED_EDGE ( 'NONE', *, *, #133, .T. ) ;
#73 =( GEOMETRIC_REPRESENTATION_CONTEXT ( 3 ) GLOBAL_UNCERTAINTY_ASSIGNED_CONTEXT ( ( #123 ) ) GLOBAL_UNIT_ASSIGNED_CONTEXT ( ( #143, #30, #217 ) ) REPRESENTATION_CONTEXT ( 'NONE', 'WORKASPACE' ) );
#74 = CARTESIAN_POINT ( 'NONE',  ( -3.206816838010677856E-31, 1.124799933034399755E-32, -9.184688465421452921E-17 ) ) ;
#75 = FACE_OUTER_BOUND ( 'NONE', #186, .T. ) ;
#76 = FACE_OUTER_BOUND ( 'NONE', #221, .T. ) ;
#77 = CIRCLE ( 'NONE', #195, 2.999999999999999112 ) ;
#78 = DIRECTION ( 'NONE',  ( 1.000000000000000000, 0.0000000000000000000, -3.491481338843133355E-15 ) ) ;
#79 = CC_DESIGN_APPROVAL ( #69, ( #183 ) ) ;
#80 = ADVANCED_FACE ( 'NONE', ( #75, #154 ), #7, .T. ) ;
#81 = VERTEX_POINT ( 'NONE', #112 ) ;
#82 = CALENDAR_DATE ( 2021, 10, 11 ) ;
#83 = CARTESIAN_POINT ( 'NONE',  ( 1.728283262727351074E-13, 2.999999999999995559, 49.50000000000000000 ) ) ;
#84 = CALENDAR_DATE ( 2021, 10, 11 ) ;
#85 = EDGE_LOOP ( 'NONE', ( #52 ) ) ;
#86 = CIRCLE ( 'NONE', #146, 3.000000000000001776 ) ;
#87 = ORIENTED_EDGE ( 'NONE', *, *, #177, .F. ) ;
#88 = PLANE ( 'NONE',  #6 ) ;
#89 = DIRECTION ( 'NONE',  ( 3.491481338843133355E-15, -0.0000000000000000000, 1.000000000000000000 ) ) ;
#90 = PLANE ( 'NONE',  #178 ) ;
#91 = DIRECTION ( 'NONE',  ( 1.000000000000000000, 0.0000000000000000000, -3.491481338843133355E-15 ) ) ;
#92 = CLOSED_SHELL ( 'NONE', ( #102, #80, #34 ) ) ;
#93 = PERSON_AND_ORGANIZATION ( #189, #135 ) ;
#94 = COORDINATED_UNIVERSAL_TIME_OFFSET ( 1, 0, .AHEAD. ) ;
#95 = CC_DESIGN_SECURITY_CLASSIFICATION ( #183, ( #166 ) ) ;
#96 = VERTEX_POINT ( 'NONE', #161 ) ;
#97 = CARTESIAN_POINT ( 'NONE',  ( -2.999999999999972022, 0.0000000000000000000, 7.872983346207422350 ) ) ;
#98 = APPROVAL ( #31, 'UNSPECIFIED' ) ;
#99 = APPROVAL_ROLE ( '' ) ;
#100 = CLOSED_SHELL ( 'NONE', ( #201, #50, #114, #33, #16 ) ) ;
#101 = ORIENTED_EDGE ( 'NONE', *, *, #133, .F. ) ;
#102 = ADVANCED_FACE ( 'NONE', ( #132 ), #90, .T. ) ;
#103 = DIRECTION ( 'NONE',  ( -3.491481338843133355E-15, 1.224646799147353207E-16, -1.000000000000000000 ) ) ;
#104 = ORIENTED_EDGE ( 'NONE', *, *, #56, .F. ) ;
#105 = DIRECTION ( 'NONE',  ( 4.275831445896958607E-31, 1.000000000000000000, 1.224646799147353207E-16 ) ) ;
#106 = CARTESIAN_POINT ( 'NONE',  ( 0.0000000000000000000, 0.0000000000000000000, 0.0000000000000000000 ) ) ;
#107 = DIRECTION ( 'NONE',  ( -3.491481338843133355E-15, 1.224646799147353207E-16, -1.000000000000000000 ) ) ;
#108 = CC_DESIGN_PERSON_AND_ORGANIZATION_ASSIGNMENT ( #216, #67, ( #166 ) ) ;
#109 = APPLICATION_PROTOCOL_DEFINITION ( 'international standard', 'config_control_design', 1994, #111 ) ;
#110 = VERTEX_POINT ( 'NONE', #83 ) ;
#111 = APPLICATION_CONTEXT ( 'configuration controlled 3d designs of mechanical parts and assemblies' ) ;
#112 = CARTESIAN_POINT ( 'NONE',  ( 2.000000000000013767, 0.0000000000000000000, 3.999999999999992450 ) ) ;
#113 = EDGE_LOOP ( 'NONE', ( #37 ) ) ;
#114 = ADVANCED_FACE ( 'NONE', ( #212 ), #61, .F. ) ;
#115 = CARTESIAN_POINT ( 'NONE',  ( 2.748837443430594578E-14, 0.0000000000000000000, 7.872983346207411692 ) ) ;
#116 = DIRECTION ( 'NONE',  ( -3.491481338843133355E-15, 0.0000000000000000000, -1.000000000000000000 ) ) ;
#117 = AXIS2_PLACEMENT_3D ( 'NONE', #119, #43, #170 ) ;
#118 = CYLINDRICAL_SURFACE ( 'NONE', #214, 2.999999999999999112 ) ;
#119 = CARTESIAN_POINT ( 'NONE',  ( 1.396592535537253027E-14, 0.0000000000000000000, 3.999999999999999112 ) ) ;
#120 = DIRECTION ( 'NONE',  ( 0.0000000000000000000, 1.000000000000000000, 0.0000000000000000000 ) ) ;
#121 = CALENDAR_DATE ( 2021, 10, 11 ) ;
#122 = APPROVAL_PERSON_ORGANIZATION ( #93, #68, #127 ) ;
#123 = UNCERTAINTY_MEASURE_WITH_UNIT (LENGTH_MEASURE( 1.000000000000000082E-05 ), #143, 'distance_accuracy_value', 'NONE');
#124 = APPROVAL_STATUS ( 'not_yet_approved' ) ;
#125 = MANIFOLD_SOLID_BREP ( 'Corps-Déplacer/Copier1[1]', #100 ) ;
#126 = APPLICATION_PROTOCOL_DEFINITION ( 'international standard', 'config_control_design', 1994, #184 ) ;
#127 = APPROVAL_ROLE ( '' ) ;
#128 = PERSON_AND_ORGANIZATION ( #189, #135 ) ;
#129 = EDGE_LOOP ( 'NONE', ( #163 ) ) ;
#130 = DATE_AND_TIME ( #84, #140 ) ;
#131 = COORDINATED_UNIVERSAL_TIME_OFFSET ( 1, 0, .AHEAD. ) ;
#132 = FACE_OUTER_BOUND ( 'NONE', #55, .T. ) ;
#133 = EDGE_CURVE ( 'NONE', #110, #110, #86, .T. ) ;
#134 = CARTESIAN_POINT ( 'NONE',  ( 1.745740669421566678E-13, 1.874699728327314346E-32, 50.00000000000000000 ) ) ;
#135 = ORGANIZATION ( 'UNSPECIFIED', 'UNSPECIFIED', '' ) ;
#136 = DIRECTION ( 'NONE',  ( 0.0000000000000000000, 1.000000000000000000, 0.0000000000000000000 ) ) ;
#137 = DIRECTION ( 'NONE',  ( -4.275831445896958607E-31, -1.000000000000000000, -1.224646799147353207E-16 ) ) ;
#138 = CC_DESIGN_DATE_AND_TIME_ASSIGNMENT ( #130, #205, ( #183 ) ) ;
#139 = FACE_OUTER_BOUND ( 'NONE', #129, .T. ) ;
#140 = LOCAL_TIME ( 7, 36, 46.00000000000000000, #131 ) ;
#141 = APPROVAL_DATE_TIME ( #66, #68 ) ;
#142 = VERTEX_POINT ( 'NONE', #97 ) ;
#143 =( LENGTH_UNIT ( ) NAMED_UNIT ( * ) SI_UNIT ( .MILLI., .METRE. ) );
#144 = AXIS2_PLACEMENT_3D ( 'NONE', #156, #211, #78 ) ;
#145 = PERSON_AND_ORGANIZATION ( #189, #135 ) ;
#146 = AXIS2_PLACEMENT_3D ( 'NONE', #62, #103, #120 ) ;
#147 = ORIENTED_EDGE ( 'NONE', *, *, #44, .F. ) ;
#148 = APPROVAL_PERSON_ORGANIZATION ( #197, #98, #99 ) ;
#149 = DIRECTION ( 'NONE',  ( 0.0000000000000000000, 1.000000000000000000, 0.0000000000000000000 ) ) ;
#150 = PRODUCT_DEFINITION ( 'UNKNOWN', '', #166, #58 ) ;
#151 = CARTESIAN_POINT ( 'NONE',  ( 1.396592535537253342E-14, 2.249639673992782854E-32, 4.000000000000000000 ) ) ;
#152 = DIRECTION ( 'NONE',  ( 3.491481338843133355E-15, -1.224646799147353207E-16, 1.000000000000000000 ) ) ;
#153 = LOCAL_TIME ( 7, 36, 46.00000000000000000, #185 ) ;
#154 = FACE_OUTER_BOUND ( 'NONE', #85, .T. ) ;
#155 = CC_DESIGN_PERSON_AND_ORGANIZATION_ASSIGNMENT ( #46, #10, ( #166 ) ) ;
#156 = CARTESIAN_POINT ( 'NONE',  ( 0.0000000000000000000, 0.0000000000000000000, 0.0000000000000000000 ) ) ;
#157 = PERSON_AND_ORGANIZATION_ROLE ( 'creator' ) ;
#158 = DATE_TIME_ROLE ( 'creation_date' ) ;
#159 = AXIS2_PLACEMENT_3D ( 'NONE', #45, #173, #91 ) ;
#160 = PRODUCT_DEFINITION_SHAPE ( 'NONE', 'NONE',  #150 ) ;
#161 = CARTESIAN_POINT ( 'NONE',  ( 2.000000000000000000, 0.0000000000000000000, -6.982962677686266711E-15 ) ) ;
#162 = AXIS2_PLACEMENT_3D ( 'NONE', #20, #39, #136 ) ;
#163 = ORIENTED_EDGE ( 'NONE', *, *, #13, .T. ) ;
#164 = EDGE_LOOP ( 'NONE', ( #72 ) ) ;
#165 = ORIENTED_EDGE ( 'NONE', *, *, #44, .T. ) ;
#166 = PRODUCT_DEFINITION_FORMATION_WITH_SPECIFIED_SOURCE ( 'ANY', '', #181, .NOT_KNOWN. ) ;
#167 = EDGE_LOOP ( 'NONE', ( #101 ) ) ;
#168 = FACE_OUTER_BOUND ( 'NONE', #194, .T. ) ;
#169 = APPROVAL_PERSON_ORGANIZATION ( #207, #69, #17 ) ;
#170 = DIRECTION ( 'NONE',  ( 1.000000000000000000, 0.0000000000000000000, -3.469446951953614189E-15 ) ) ;
#171 = DIRECTION ( 'NONE',  ( 4.275831445896958607E-31, 1.000000000000000000, 1.224646799147353207E-16 ) ) ;
#172 = CC_DESIGN_PERSON_AND_ORGANIZATION_ASSIGNMENT ( #145, #26, ( #181 ) ) ;
#173 = DIRECTION ( 'NONE',  ( 3.491481338843133355E-15, -0.0000000000000000000, 1.000000000000000000 ) ) ;
#174 = AXIS2_PLACEMENT_3D ( 'NONE', #106, #89, #23 ) ;
#175 = CARTESIAN_POINT ( 'NONE',  ( 1.745740669421566678E-13, -6.123233995736766085E-15, 50.00000000000000000 ) ) ;
#176 = CARTESIAN_POINT ( 'NONE',  ( 1.745740669421566678E-13, 2.499999999999995559, 50.00000000000000000 ) ) ;
#177 = EDGE_CURVE ( 'NONE', #11, #11, #28, .T. ) ;
#178 = AXIS2_PLACEMENT_3D ( 'NONE', #151, #208, #137 ) ;
#179 = MECHANICAL_CONTEXT ( 'NONE', #111, 'mechanical' ) ;
#180 = PERSON_AND_ORGANIZATION ( #189, #135 ) ;
#181 = PRODUCT ( '63830', '63830', '', ( #179 ) ) ;
#182 = CC_DESIGN_DATE_AND_TIME_ASSIGNMENT ( #27, #158, ( #150 ) ) ;
#183 = SECURITY_CLASSIFICATION ( '', '', #198 ) ;
#184 = APPLICATION_CONTEXT ( 'configuration controlled 3d designs of mechanical parts and assemblies' ) ;
#185 = COORDINATED_UNIVERSAL_TIME_OFFSET ( 1, 0, .AHEAD. ) ;
#186 = EDGE_LOOP ( 'NONE', ( #223 ) ) ;
#187 = PRODUCT_RELATED_PRODUCT_CATEGORY ( 'detail', '', ( #181 ) ) ;
#188 = DIRECTION ( 'NONE',  ( -4.275831445896958607E-31, -1.000000000000000000, -1.224646799147353207E-16 ) ) ;
#189 = PERSON ( 'UNSPECIFIED', 'UNSPECIFIED', 'UNSPECIFIED', ('UNSPECIFIED'), ('UNSPECIFIED'), ('UNSPECIFIED') ) ;
#190 = DIRECTION ( 'NONE',  ( -4.275831445896958607E-31, -1.000000000000000000, -1.224646799147353207E-16 ) ) ;
#191 = AXIS2_PLACEMENT_3D ( 'NONE', #74, #59, #188 ) ;
#192 = CARTESIAN_POINT ( 'NONE',  ( 0.0000000000000000000, 0.0000000000000000000, 0.0000000000000000000 ) ) ;
#193 = DIRECTION ( 'NONE',  ( -1.000000000000000000, 0.0000000000000000000, 3.469446951953615372E-15 ) ) ;
#194 = EDGE_LOOP ( 'NONE', ( #147 ) ) ;
#195 = AXIS2_PLACEMENT_3D ( 'NONE', #115, #116, #193 ) ;
#196 = DATE_AND_TIME ( #121, #64 ) ;
#197 = PERSON_AND_ORGANIZATION ( #189, #135 ) ;
#198 = SECURITY_CLASSIFICATION_LEVEL ( 'unclassified' ) ;
#199 = CC_DESIGN_APPROVAL ( #98, ( #166 ) ) ;
#200 = VERTEX_POINT ( 'NONE', #202 ) ;
#201 = ADVANCED_FACE ( 'NONE', ( #209, #3 ), #118, .T. ) ;
#202 = CARTESIAN_POINT ( 'NONE',  ( 2.000000000000013767, 0.0000000000000000000, 3.999999999999992450 ) ) ;
#203 = DATE_AND_TIME ( #54, #153 ) ;
#204 = ORIENTED_EDGE ( 'NONE', *, *, #1, .T. ) ;
#205 = DATE_TIME_ROLE ( 'classification_date' ) ;
#206 = EDGE_LOOP ( 'NONE', ( #38 ) ) ;
#207 = PERSON_AND_ORGANIZATION ( #189, #135 ) ;
#208 = DIRECTION ( 'NONE',  ( 3.491481338843133355E-15, -1.224646799147353207E-16, 1.000000000000000000 ) ) ;
#209 = FACE_OUTER_BOUND ( 'NONE', #164, .T. ) ;
#210 = AXIS2_PLACEMENT_3D ( 'NONE', #12, #219, #29 ) ;
#211 = DIRECTION ( 'NONE',  ( 3.491481338843133355E-15, -0.0000000000000000000, 1.000000000000000000 ) ) ;
#212 = FACE_OUTER_BOUND ( 'NONE', #71, .T. ) ;
#213 = CARTESIAN_POINT ( 'NONE',  ( 1.396592535537253027E-14, 0.0000000000000000000, 3.999999999999999112 ) ) ;
#214 = AXIS2_PLACEMENT_3D ( 'NONE', #192, #42, #105 ) ;
#215 = COORDINATED_UNIVERSAL_TIME_OFFSET ( 1, 0, .AHEAD. ) ;
#216 = PERSON_AND_ORGANIZATION ( #189, #135 ) ;
#217 =( NAMED_UNIT ( * ) SI_UNIT ( $, .STERADIAN. ) SOLID_ANGLE_UNIT ( ) );
#218 = CIRCLE ( 'NONE', #117, 2.000000000000000000 ) ;
#219 = DIRECTION ( 'NONE',  ( 0.0000000000000000000, 0.0000000000000000000, 1.000000000000000000 ) ) ;
#220 = APPROVAL_DATE_TIME ( #203, #69 ) ;
#221 = EDGE_LOOP ( 'NONE', ( #104 ) ) ;
#222 = SHAPE_DEFINITION_REPRESENTATION ( #160, #65 ) ;
#223 = ORIENTED_EDGE ( 'NONE', *, *, #56, .T. ) ;
ENDSEC;
END-ISO-10303-21;
