ISO-10303-21;
HEADER;
FILE_DESCRIPTION (( 'STEP AP203' ),
    '1' );
FILE_NAME ('63829.step',
    '2021-11-10T06:36:45',
    ( '' ),
    ( '' ),
    'SwSTEP 2.0',
    'SolidWorks 2019',
    '' );
FILE_SCHEMA (( 'CONFIG_CONTROL_DESIGN' ));
ENDSEC;

DATA;
#1 = CALENDAR_DATE ( 2021, 10, 11 ) ;
#2 = DIRECTION ( 'NONE',  ( 0.0000000000000000000, 1.000000000000000000, 0.0000000000000000000 ) ) ;
#3 = FACE_OUTER_BOUND ( 'NONE', #155, .T. ) ;
#4 = FACE_OUTER_BOUND ( 'NONE', #193, .T. ) ;
#5 = DIRECTION ( 'NONE',  ( 3.491481338843133355E-15, -0.0000000000000000000, 1.000000000000000000 ) ) ;
#6 = CARTESIAN_POINT ( 'NONE',  ( 1.222018468595095885E-14, 0.0000000000000000000, 3.499999999999997780 ) ) ;
#7 = CC_DESIGN_PERSON_AND_ORGANIZATION_ASSIGNMENT ( #129, #145, ( #112 ) ) ;
#8 = PERSON_AND_ORGANIZATION ( #132, #124 ) ;
#9 = CONICAL_SURFACE ( 'NONE', #65, 2.500000000000001776, 0.7853981633974479459 ) ;
#10 = DATE_AND_TIME ( #75, #135 ) ;
#11 = APPROVAL_DATE_TIME ( #66, #209 ) ;
#12 = AXIS2_PLACEMENT_3D ( 'NONE', #154, #119, #214 ) ;
#13 = EDGE_LOOP ( 'NONE', ( #95 ) ) ;
#14 = ADVANCED_FACE ( 'NONE', ( #81, #18 ), #139, .T. ) ;
#15 = AXIS2_PLACEMENT_3D ( 'NONE', #153, #52, #157 ) ;
#16 = FACE_OUTER_BOUND ( 'NONE', #206, .T. ) ;
#17 = DIRECTION ( 'NONE',  ( 3.491481338843133355E-15, -0.0000000000000000000, 1.000000000000000000 ) ) ;
#18 = FACE_OUTER_BOUND ( 'NONE', #13, .T. ) ;
#19 = DIRECTION ( 'NONE',  ( 1.000000000000000000, 0.0000000000000000000, -3.469446951953614583E-15 ) ) ;
#20 = PERSON_AND_ORGANIZATION ( #132, #124 ) ;
#21 = ADVANCED_FACE ( 'NONE', ( #102 ), #83, .F. ) ;
#22 = DATE_TIME_ROLE ( 'creation_date' ) ;
#23 = CC_DESIGN_SECURITY_CLASSIFICATION ( #91, ( #109 ) ) ;
#24 = CC_DESIGN_DATE_AND_TIME_ASSIGNMENT ( #189, #110, ( #91 ) ) ;
#25 =( NAMED_UNIT ( * ) SI_UNIT ( $, .STERADIAN. ) SOLID_ANGLE_UNIT ( ) );
#26 = CIRCLE ( 'NONE', #93, 1.749999999999999778 ) ;
#27 = PERSON_AND_ORGANIZATION ( #132, #124 ) ;
#28 = CC_DESIGN_DATE_AND_TIME_ASSIGNMENT ( #56, #22, ( #82 ) ) ;
#29 = ORIENTED_EDGE ( 'NONE', *, *, #151, .T. ) ;
#30 = APPROVAL_PERSON_ORGANIZATION ( #8, #46, #219 ) ;
#31 = DIRECTION ( 'NONE',  ( 3.491481338843133355E-15, -0.0000000000000000000, 1.000000000000000000 ) ) ;
#32 = CARTESIAN_POINT ( 'NONE',  ( 1.222018468595096517E-14, -5.059610138265696562E-16, 3.499999999999999556 ) ) ;
#33 = DIRECTION ( 'NONE',  ( 4.275831445896958607E-31, 1.000000000000000000, 1.224646799147353207E-16 ) ) ;
#34 = CARTESIAN_POINT ( 'NONE',  ( 1.745740669421566678E-13, -6.123233995736766085E-15, 50.00000000000000000 ) ) ;
#35 = LOCAL_TIME ( 7, 36, 45.00000000000000000, #143 ) ;
#36 = DIRECTION ( 'NONE',  ( 3.491481338843133355E-15, -1.224646799147353207E-16, 1.000000000000000000 ) ) ;
#37 = DIRECTION ( 'NONE',  ( 0.0000000000000000000, 1.000000000000000000, 0.0000000000000000000 ) ) ;
#38 = APPROVAL_DATE_TIME ( #10, #46 ) ;
#39 = AXIS2_PLACEMENT_3D ( 'NONE', #101, #31, #176 ) ;
#40 = COORDINATED_UNIVERSAL_TIME_OFFSET ( 1, 0, .AHEAD. ) ;
#41 = MANIFOLD_SOLID_BREP ( 'Corps-Déplacer/Copier1[2]', #197 ) ;
#42 = CARTESIAN_POINT ( 'NONE',  ( 1.750000000000000000, 0.0000000000000000000, -6.110092342975483372E-15 ) ) ;
#43 = PERSON_AND_ORGANIZATION ( #132, #124 ) ;
#44 = CIRCLE ( 'NONE', #96, 2.500000000000001776 ) ;
#45 = APPLICATION_CONTEXT ( 'configuration controlled 3d designs of mechanical parts and assemblies' ) ;
#46 = APPROVAL ( #165, 'UNSPECIFIED' ) ;
#47 = SECURITY_CLASSIFICATION_LEVEL ( 'unclassified' ) ;
#48 = EDGE_LOOP ( 'NONE', ( #150 ) ) ;
#49 = LOCAL_TIME ( 7, 36, 45.00000000000000000, #148 ) ;
#50 = DIRECTION ( 'NONE',  ( -3.491481338843133355E-15, 1.224646799147353207E-16, -1.000000000000000000 ) ) ;
#51 = FACE_BOUND ( 'NONE', #190, .T. ) ;
#52 = DIRECTION ( 'NONE',  ( 3.491481338843133355E-15, -1.224646799147353207E-16, 1.000000000000000000 ) ) ;
#53 = EDGE_CURVE ( 'NONE', #87, #87, #26, .T. ) ;
#54 = CYLINDRICAL_SURFACE ( 'NONE', #100, 2.999999999999999112 ) ;
#55 = CIRCLE ( 'NONE', #161, 2.999999999999999112 ) ;
#56 = DATE_AND_TIME ( #61, #35 ) ;
#57 = PERSON_AND_ORGANIZATION ( #132, #124 ) ;
#58 = ADVANCED_FACE ( 'NONE', ( #121, #122 ), #192, .F. ) ;
#59 = DIRECTION ( 'NONE',  ( -3.491481338843133355E-15, 1.224646799147353207E-16, -1.000000000000000000 ) ) ;
#60 = AXIS2_PLACEMENT_3D ( 'NONE', #140, #212, #2 ) ;
#61 = CALENDAR_DATE ( 2021, 10, 11 ) ;
#62 = APPLICATION_PROTOCOL_DEFINITION ( 'international standard', 'config_control_design', 1994, #163 ) ;
#63 = EDGE_CURVE ( 'NONE', #86, #86, #152, .T. ) ;
#64 = ORIENTED_EDGE ( 'NONE', *, *, #175, .T. ) ;
#65 = AXIS2_PLACEMENT_3D ( 'NONE', #99, #59, #37 ) ;
#66 = DATE_AND_TIME ( #1, #49 ) ;
#67 = FACE_OUTER_BOUND ( 'NONE', #205, .T. ) ;
#68 = PLANE ( 'NONE',  #167 ) ;
#69 = DIRECTION ( 'NONE',  ( 1.000000000000000000, 0.0000000000000000000, -3.491481338843132961E-15 ) ) ;
#70 = CARTESIAN_POINT ( 'NONE',  ( 1.222018468595096201E-14, 0.0000000000000000000, 3.499999999999998668 ) ) ;
#71 = EDGE_LOOP ( 'NONE', ( #118 ) ) ;
#72 = DIRECTION ( 'NONE',  ( 1.000000000000000000, 0.0000000000000000000, 0.0000000000000000000 ) ) ;
#73 = LOCAL_TIME ( 7, 36, 45.00000000000000000, #116 ) ;
#74 = CARTESIAN_POINT ( 'NONE',  ( 1.745740669421566678E-13, 2.499999999999995559, 50.00000000000000000 ) ) ;
#75 = CALENDAR_DATE ( 2021, 10, 11 ) ;
#76 = CIRCLE ( 'NONE', #207, 1.749999999999999778 ) ;
#77 = MECHANICAL_CONTEXT ( 'NONE', #163, 'mechanical' ) ;
#78 = CC_DESIGN_PERSON_AND_ORGANIZATION_ASSIGNMENT ( #217, #220, ( #82 ) ) ;
#79 = FACE_OUTER_BOUND ( 'NONE', #71, .T. ) ;
#80 = CARTESIAN_POINT ( 'NONE',  ( 0.0000000000000000000, 0.0000000000000000000, 0.0000000000000000000 ) ) ;
#81 = FACE_OUTER_BOUND ( 'NONE', #183, .T. ) ;
#82 = PRODUCT_DEFINITION ( 'UNKNOWN', '', #109, #85 ) ;
#83 = PLANE ( 'NONE',  #15 ) ;
#84 = DIRECTION ( 'NONE',  ( -3.491481338843133355E-15, 1.224646799147353207E-16, -1.000000000000000000 ) ) ;
#85 = DESIGN_CONTEXT ( 'detailed design', #45, 'design' ) ;
#86 = VERTEX_POINT ( 'NONE', #106 ) ;
#87 = VERTEX_POINT ( 'NONE', #126 ) ;
#88 = CC_DESIGN_APPROVAL ( #104, ( #109 ) ) ;
#89 =( LENGTH_UNIT ( ) NAMED_UNIT ( * ) SI_UNIT ( .MILLI., .METRE. ) );
#90 = APPLICATION_PROTOCOL_DEFINITION ( 'international standard', 'config_control_design', 1994, #45 ) ;
#91 = SECURITY_CLASSIFICATION ( '', '', #47 ) ;
#92 = PERSON_AND_ORGANIZATION_ROLE ( 'design_supplier' ) ;
#93 = AXIS2_PLACEMENT_3D ( 'NONE', #6, #5, #194 ) ;
#94 = APPROVAL_STATUS ( 'not_yet_approved' ) ;
#95 = ORIENTED_EDGE ( 'NONE', *, *, #53, .F. ) ;
#96 = AXIS2_PLACEMENT_3D ( 'NONE', #34, #84, #98 ) ;
#97 = CARTESIAN_POINT ( 'NONE',  ( 1.222018468595095885E-14, 0.0000000000000000000, 3.499999999999997780 ) ) ;
#98 = DIRECTION ( 'NONE',  ( 0.0000000000000000000, 1.000000000000000000, 0.0000000000000000000 ) ) ;
#99 = CARTESIAN_POINT ( 'NONE',  ( 1.745740669421566678E-13, -6.123233995736766085E-15, 50.00000000000000000 ) ) ;
#100 = AXIS2_PLACEMENT_3D ( 'NONE', #80, #158, #33 ) ;
#101 = CARTESIAN_POINT ( 'NONE',  ( 0.0000000000000000000, 0.0000000000000000000, 0.0000000000000000000 ) ) ;
#102 = FACE_OUTER_BOUND ( 'NONE', #48, .T. ) ;
#103 = CARTESIAN_POINT ( 'NONE',  ( 0.0000000000000000000, 0.0000000000000000000, 0.0000000000000000000 ) ) ;
#104 = APPROVAL ( #131, 'UNSPECIFIED' ) ;
#105 = CARTESIAN_POINT ( 'NONE',  ( -2.999999999999972022, 0.0000000000000000000, 7.793891009329422026 ) ) ;
#106 = CARTESIAN_POINT ( 'NONE',  ( 1.728283262727351074E-13, 2.999999999999995559, 49.50000000000000000 ) ) ;
#107 = APPROVAL_DATE_TIME ( #203, #104 ) ;
#108 = PERSON_AND_ORGANIZATION_ROLE ( 'creator' ) ;
#109 = PRODUCT_DEFINITION_FORMATION_WITH_SPECIFIED_SOURCE ( 'ANY', '', #112, .NOT_KNOWN. ) ;
#110 = DATE_TIME_ROLE ( 'classification_date' ) ;
#111 = ORIENTED_EDGE ( 'NONE', *, *, #179, .T. ) ;
#112 = PRODUCT ( '63829', '63829', '', ( #77 ) ) ;
#113 = PERSON_AND_ORGANIZATION ( #132, #124 ) ;
#114 = ORIENTED_EDGE ( 'NONE', *, *, #63, .F. ) ;
#115 = MANIFOLD_SOLID_BREP ( 'Corps-Déplacer/Copier1[1]', #137 ) ;
#116 = COORDINATED_UNIVERSAL_TIME_OFFSET ( 1, 0, .AHEAD. ) ;
#117 = CC_DESIGN_PERSON_AND_ORGANIZATION_ASSIGNMENT ( #20, #92, ( #109 ) ) ;
#118 = ORIENTED_EDGE ( 'NONE', *, *, #141, .F. ) ;
#119 = DIRECTION ( 'NONE',  ( 3.491481338843133355E-15, -0.0000000000000000000, 1.000000000000000000 ) ) ;
#120 = LOCAL_TIME ( 7, 36, 45.00000000000000000, #130 ) ;
#121 = FACE_OUTER_BOUND ( 'NONE', #134, .T. ) ;
#122 = FACE_OUTER_BOUND ( 'NONE', #188, .T. ) ;
#123 = CARTESIAN_POINT ( 'NONE',  ( 1.222018468595096517E-14, -5.059610138265696562E-16, 3.499999999999999556 ) ) ;
#124 = ORGANIZATION ( 'UNSPECIFIED', 'UNSPECIFIED', '' ) ;
#125 = PLANE ( 'NONE',  #200 ) ;
#126 = CARTESIAN_POINT ( 'NONE',  ( 1.750000000000011990, 0.0000000000000000000, 3.499999999999992006 ) ) ;
#127 = VERTEX_POINT ( 'NONE', #42 ) ;
#128 = CIRCLE ( 'NONE', #39, 1.750000000000000000 ) ;
#129 = PERSON_AND_ORGANIZATION ( #132, #124 ) ;
#130 = COORDINATED_UNIVERSAL_TIME_OFFSET ( 1, 0, .AHEAD. ) ;
#131 = APPROVAL_STATUS ( 'not_yet_approved' ) ;
#132 = PERSON ( 'UNSPECIFIED', 'UNSPECIFIED', 'UNSPECIFIED', ('UNSPECIFIED'), ('UNSPECIFIED'), ('UNSPECIFIED') ) ;
#133 = APPROVAL_ROLE ( '' ) ;
#134 = EDGE_LOOP ( 'NONE', ( #111 ) ) ;
#135 = LOCAL_TIME ( 7, 36, 45.00000000000000000, #40 ) ;
#136 = CARTESIAN_POINT ( 'NONE',  ( 1.745740669421566678E-13, 1.874699728327314346E-32, 50.00000000000000000 ) ) ;
#137 = CLOSED_SHELL ( 'NONE', ( #186, #218, #202, #58, #147 ) ) ;
#138 = DIRECTION ( 'NONE',  ( -3.491481338843133355E-15, 0.0000000000000000000, -1.000000000000000000 ) ) ;
#139 = CYLINDRICAL_SURFACE ( 'NONE', #12, 1.749999999999999778 ) ;
#140 = CARTESIAN_POINT ( 'NONE',  ( 1.728283262727351074E-13, -6.062001655779398511E-15, 49.50000000000000000 ) ) ;
#141 = EDGE_CURVE ( 'NONE', #181, #181, #44, .T. ) ;
#142 = AXIS2_PLACEMENT_3D ( 'NONE', #70, #174, #69 ) ;
#143 = COORDINATED_UNIVERSAL_TIME_OFFSET ( 1, 0, .AHEAD. ) ;
#144 = UNCERTAINTY_MEASURE_WITH_UNIT (LENGTH_MEASURE( 1.000000000000000082E-05 ), #89, 'distance_accuracy_value', 'NONE');
#145 = PERSON_AND_ORGANIZATION_ROLE ( 'design_owner' ) ;
#146 = ORIENTED_EDGE ( 'NONE', *, *, #53, .T. ) ;
#147 = ADVANCED_FACE ( 'NONE', ( #67 ), #215, .F. ) ;
#148 = COORDINATED_UNIVERSAL_TIME_OFFSET ( 1, 0, .AHEAD. ) ;
#149 =( GEOMETRIC_REPRESENTATION_CONTEXT ( 3 ) GLOBAL_UNCERTAINTY_ASSIGNED_CONTEXT ( ( #144 ) ) GLOBAL_UNIT_ASSIGNED_CONTEXT ( ( #89, #162, #25 ) ) REPRESENTATION_CONTEXT ( 'NONE', 'WORKASPACE' ) );
#150 = ORIENTED_EDGE ( 'NONE', *, *, #175, .F. ) ;
#151 = EDGE_CURVE ( 'NONE', #198, #198, #55, .T. ) ;
#152 = CIRCLE ( 'NONE', #60, 3.000000000000001776 ) ;
#153 = CARTESIAN_POINT ( 'NONE',  ( -3.206816838010677856E-31, 1.124799933034399755E-32, -9.184688465421452921E-17 ) ) ;
#154 = CARTESIAN_POINT ( 'NONE',  ( 0.0000000000000000000, 0.0000000000000000000, 0.0000000000000000000 ) ) ;
#155 = EDGE_LOOP ( 'NONE', ( #146 ) ) ;
#156 = APPROVAL_PERSON_ORGANIZATION ( #27, #209, #133 ) ;
#157 = DIRECTION ( 'NONE',  ( -4.275831445896958607E-31, -1.000000000000000000, -1.224646799147353207E-16 ) ) ;
#158 = DIRECTION ( 'NONE',  ( -3.491481338843133355E-15, 1.224646799147353207E-16, -1.000000000000000000 ) ) ;
#159 = CC_DESIGN_PERSON_AND_ORGANIZATION_ASSIGNMENT ( #43, #108, ( #109 ) ) ;
#160 = CARTESIAN_POINT ( 'NONE',  ( 1.750000000000011990, 0.0000000000000000000, 3.499999999999992006 ) ) ;
#161 = AXIS2_PLACEMENT_3D ( 'NONE', #196, #138, #191 ) ;
#162 =( NAMED_UNIT ( * ) PLANE_ANGLE_UNIT ( ) SI_UNIT ( $, .RADIAN. ) );
#163 = APPLICATION_CONTEXT ( 'configuration controlled 3d designs of mechanical parts and assemblies' ) ;
#164 = APPROVAL_PERSON_ORGANIZATION ( #57, #104, #199 ) ;
#165 = APPROVAL_STATUS ( 'not_yet_approved' ) ;
#166 = PERSON_AND_ORGANIZATION_ROLE ( 'classification_officer' ) ;
#167 = AXIS2_PLACEMENT_3D ( 'NONE', #136, #50, #173 ) ;
#168 = CALENDAR_DATE ( 2021, 10, 11 ) ;
#169 = ORIENTED_EDGE ( 'NONE', *, *, #141, .T. ) ;
#170 = EDGE_LOOP ( 'NONE', ( #223 ) ) ;
#171 = AXIS2_PLACEMENT_3D ( 'NONE', #123, #211, #210 ) ;
#172 = FACE_OUTER_BOUND ( 'NONE', #170, .T. ) ;
#173 = DIRECTION ( 'NONE',  ( 4.275831445896958607E-31, 1.000000000000000000, 1.224646799147353207E-16 ) ) ;
#174 = DIRECTION ( 'NONE',  ( 3.491481338843133355E-15, -0.0000000000000000000, 1.000000000000000000 ) ) ;
#175 = EDGE_CURVE ( 'NONE', #127, #127, #128, .T. ) ;
#176 = DIRECTION ( 'NONE',  ( 1.000000000000000000, 0.0000000000000000000, -3.491481338843133355E-15 ) ) ;
#177 = DIRECTION ( 'NONE',  ( -4.275831445896958607E-31, -1.000000000000000000, -1.224646799147353207E-16 ) ) ;
#178 = DIRECTION ( 'NONE',  ( 0.0000000000000000000, 0.0000000000000000000, 1.000000000000000000 ) ) ;
#179 = EDGE_CURVE ( 'NONE', #180, #180, #76, .T. ) ;
#180 = VERTEX_POINT ( 'NONE', #160 ) ;
#181 = VERTEX_POINT ( 'NONE', #74 ) ;
#182 = ADVANCED_BREP_SHAPE_REPRESENTATION ( '63829', ( #115, #41, #221 ), #149 ) ;
#183 = EDGE_LOOP ( 'NONE', ( #64 ) ) ;
#184 = ORIENTED_EDGE ( 'NONE', *, *, #151, .F. ) ;
#185 = PRODUCT_DEFINITION_SHAPE ( 'NONE', 'NONE',  #82 ) ;
#186 = ADVANCED_FACE ( 'NONE', ( #172, #16 ), #54, .T. ) ;
#187 = SHAPE_DEFINITION_REPRESENTATION ( #185, #182 ) ;
#188 = EDGE_LOOP ( 'NONE', ( #29 ) ) ;
#189 = DATE_AND_TIME ( #168, #73 ) ;
#190 = EDGE_LOOP ( 'NONE', ( #169 ) ) ;
#191 = DIRECTION ( 'NONE',  ( -1.000000000000000000, 0.0000000000000000000, 3.469446951953615372E-15 ) ) ;
#192 = TOROIDAL_SURFACE ( 'NONE', #142, 9.750000000000001776, 8.000000000000000000 ) ;
#193 = EDGE_LOOP ( 'NONE', ( #114 ) ) ;
#194 = DIRECTION ( 'NONE',  ( 1.000000000000000000, 0.0000000000000000000, -3.469446951953614583E-15 ) ) ;
#195 = ADVANCED_FACE ( 'NONE', ( #3 ), #125, .T. ) ;
#196 = CARTESIAN_POINT ( 'NONE',  ( 2.721222501605091353E-14, 0.0000000000000000000, 7.793891009329411368 ) ) ;
#197 = CLOSED_SHELL ( 'NONE', ( #195, #14, #21 ) ) ;
#198 = VERTEX_POINT ( 'NONE', #105 ) ;
#199 = APPROVAL_ROLE ( '' ) ;
#200 = AXIS2_PLACEMENT_3D ( 'NONE', #32, #36, #177 ) ;
#201 = CALENDAR_DATE ( 2021, 10, 11 ) ;
#202 = ADVANCED_FACE ( 'NONE', ( #79 ), #68, .F. ) ;
#203 = DATE_AND_TIME ( #201, #120 ) ;
#204 = CC_DESIGN_APPROVAL ( #209, ( #91 ) ) ;
#205 = EDGE_LOOP ( 'NONE', ( #208 ) ) ;
#206 = EDGE_LOOP ( 'NONE', ( #184 ) ) ;
#207 = AXIS2_PLACEMENT_3D ( 'NONE', #97, #17, #19 ) ;
#208 = ORIENTED_EDGE ( 'NONE', *, *, #179, .F. ) ;
#209 = APPROVAL ( #94, 'UNSPECIFIED' ) ;
#210 = DIRECTION ( 'NONE',  ( -4.275831445896958607E-31, -1.000000000000000000, -1.224646799147353207E-16 ) ) ;
#211 = DIRECTION ( 'NONE',  ( 3.491481338843133355E-15, -1.224646799147353207E-16, 1.000000000000000000 ) ) ;
#212 = DIRECTION ( 'NONE',  ( -3.491481338843133355E-15, 1.224646799147353207E-16, -1.000000000000000000 ) ) ;
#213 = CC_DESIGN_PERSON_AND_ORGANIZATION_ASSIGNMENT ( #113, #166, ( #91 ) ) ;
#214 = DIRECTION ( 'NONE',  ( 1.000000000000000000, 0.0000000000000000000, -3.491481338843133355E-15 ) ) ;
#215 = PLANE ( 'NONE',  #171 ) ;
#216 = CC_DESIGN_APPROVAL ( #46, ( #82 ) ) ;
#217 = PERSON_AND_ORGANIZATION ( #132, #124 ) ;
#218 = ADVANCED_FACE ( 'NONE', ( #4, #51 ), #9, .T. ) ;
#219 = APPROVAL_ROLE ( '' ) ;
#220 = PERSON_AND_ORGANIZATION_ROLE ( 'creator' ) ;
#221 = AXIS2_PLACEMENT_3D ( 'NONE', #103, #178, #72 ) ;
#222 = PRODUCT_RELATED_PRODUCT_CATEGORY ( 'detail', '', ( #112 ) ) ;
#223 = ORIENTED_EDGE ( 'NONE', *, *, #63, .T. ) ;
ENDSEC;
END-ISO-10303-21;
