ISO-10303-21;
HEADER;
FILE_DESCRIPTION (( 'STEP AP203' ),
    '1' );
FILE_NAME ('63828.step',
    '2021-11-10T06:36:44',
    ( '' ),
    ( '' ),
    'SwSTEP 2.0',
    'SolidWorks 2019',
    '' );
FILE_SCHEMA (( 'CONFIG_CONTROL_DESIGN' ));
ENDSEC;

DATA;
#1 = DIRECTION ( 'NONE',  ( 3.491481338843133355E-15, -0.0000000000000000000, 1.000000000000000000 ) ) ;
#2 = CARTESIAN_POINT ( 'NONE',  ( 0.0000000000000000000, 0.0000000000000000000, 0.0000000000000000000 ) ) ;
#3 = FACE_OUTER_BOUND ( 'NONE', #48, .T. ) ;
#4 = CARTESIAN_POINT ( 'NONE',  ( 1.500000000000009992, 0.0000000000000000000, 2.999999999999993339 ) ) ;
#5 =( GEOMETRIC_REPRESENTATION_CONTEXT ( 3 ) GLOBAL_UNCERTAINTY_ASSIGNED_CONTEXT ( ( #69 ) ) GLOBAL_UNIT_ASSIGNED_CONTEXT ( ( #97, #25, #78 ) ) REPRESENTATION_CONTEXT ( 'NONE', 'WORKASPACE' ) );
#6 = CLOSED_SHELL ( 'NONE', ( #16, #166, #19 ) ) ;
#7 = CC_DESIGN_PERSON_AND_ORGANIZATION_ASSIGNMENT ( #27, #170, ( #94 ) ) ;
#8 = APPROVAL_STATUS ( 'not_yet_approved' ) ;
#9 = CARTESIAN_POINT ( 'NONE',  ( 0.0000000000000000000, 0.0000000000000000000, 0.0000000000000000000 ) ) ;
#10 = CALENDAR_DATE ( 2021, 10, 11 ) ;
#11 = APPROVAL_STATUS ( 'not_yet_approved' ) ;
#12 = CARTESIAN_POINT ( 'NONE',  ( 1.745740669421566678E-13, -6.123233995736766085E-15, 50.00000000000000000 ) ) ;
#13 = ADVANCED_FACE ( 'NONE', ( #14, #171 ), #133, .T. ) ;
#14 = FACE_OUTER_BOUND ( 'NONE', #190, .T. ) ;
#15 = PLANE ( 'NONE',  #128 ) ;
#16 = ADVANCED_FACE ( 'NONE', ( #100 ), #173, .T. ) ;
#17 = PLANE ( 'NONE',  #35 ) ;
#18 = CARTESIAN_POINT ( 'NONE',  ( 1.745740669421566678E-13, -6.123233995736766085E-15, 50.00000000000000000 ) ) ;
#19 = ADVANCED_FACE ( 'NONE', ( #117 ), #17, .F. ) ;
#20 = DIRECTION ( 'NONE',  ( 0.0000000000000000000, 1.000000000000000000, 0.0000000000000000000 ) ) ;
#21 = DATE_TIME_ROLE ( 'classification_date' ) ;
#22 = DIRECTION ( 'NONE',  ( 4.275831445896958607E-31, 1.000000000000000000, 1.224646799147353207E-16 ) ) ;
#23 = PERSON_AND_ORGANIZATION ( #182, #121 ) ;
#24 = DIRECTION ( 'NONE',  ( 1.000000000000000000, 0.0000000000000000000, 0.0000000000000000000 ) ) ;
#25 =( NAMED_UNIT ( * ) PLANE_ANGLE_UNIT ( ) SI_UNIT ( $, .RADIAN. ) );
#26 = TOROIDAL_SURFACE ( 'NONE', #86, 9.500000000000001776, 8.000000000000000000 ) ;
#27 = PERSON_AND_ORGANIZATION ( #182, #121 ) ;
#28 = EDGE_LOOP ( 'NONE', ( #191 ) ) ;
#29 = EDGE_LOOP ( 'NONE', ( #46 ) ) ;
#30 = ORIENTED_EDGE ( 'NONE', *, *, #207, .F. ) ;
#31 = ADVANCED_FACE ( 'NONE', ( #198 ), #40, .F. ) ;
#32 = ORIENTED_EDGE ( 'NONE', *, *, #34, .F. ) ;
#33 = CC_DESIGN_APPROVAL ( #138, ( #177 ) ) ;
#34 = EDGE_CURVE ( 'NONE', #75, #75, #223, .T. ) ;
#35 = AXIS2_PLACEMENT_3D ( 'NONE', #90, #145, #199 ) ;
#36 = DIRECTION ( 'NONE',  ( 1.000000000000000000, 0.0000000000000000000, -3.491481338843133355E-15 ) ) ;
#37 = DIRECTION ( 'NONE',  ( 3.491481338843133355E-15, -0.0000000000000000000, 1.000000000000000000 ) ) ;
#38 = MANIFOLD_SOLID_BREP ( 'Corps-Déplacer/Copier1[1]', #103 ) ;
#39 = FACE_OUTER_BOUND ( 'NONE', #29, .T. ) ;
#40 = PLANE ( 'NONE',  #116 ) ;
#41 = SECURITY_CLASSIFICATION ( '', '', #181 ) ;
#42 = APPROVAL_ROLE ( '' ) ;
#43 = PERSON_AND_ORGANIZATION ( #182, #121 ) ;
#44 = AXIS2_PLACEMENT_3D ( 'NONE', #180, #104, #174 ) ;
#45 = COORDINATED_UNIVERSAL_TIME_OFFSET ( 1, 0, .AHEAD. ) ;
#46 = ORIENTED_EDGE ( 'NONE', *, *, #175, .T. ) ;
#47 = APPROVAL ( #8, 'UNSPECIFIED' ) ;
#48 = EDGE_LOOP ( 'NONE', ( #66 ) ) ;
#49 = AXIS2_PLACEMENT_3D ( 'NONE', #2, #50, #36 ) ;
#50 = DIRECTION ( 'NONE',  ( 3.491481338843133355E-15, -0.0000000000000000000, 1.000000000000000000 ) ) ;
#51 = PRODUCT_DEFINITION_SHAPE ( 'NONE', 'NONE',  #177 ) ;
#52 = EDGE_CURVE ( 'NONE', #58, #58, #157, .T. ) ;
#53 = CARTESIAN_POINT ( 'NONE',  ( 1.047444401652939691E-14, 0.0000000000000000000, 2.999999999999999112 ) ) ;
#54 = COORDINATED_UNIVERSAL_TIME_OFFSET ( 1, 0, .AHEAD. ) ;
#55 = DIRECTION ( 'NONE',  ( -3.491481338843133355E-15, 1.224646799147353207E-16, -1.000000000000000000 ) ) ;
#56 = DATE_AND_TIME ( #105, #178 ) ;
#57 = CC_DESIGN_APPROVAL ( #59, ( #41 ) ) ;
#58 = VERTEX_POINT ( 'NONE', #127 ) ;
#59 = APPROVAL ( #192, 'UNSPECIFIED' ) ;
#60 = AXIS2_PLACEMENT_3D ( 'NONE', #179, #183, #210 ) ;
#61 = VERTEX_POINT ( 'NONE', #150 ) ;
#62 = MECHANICAL_CONTEXT ( 'NONE', #81, 'mechanical' ) ;
#63 = DATE_TIME_ROLE ( 'creation_date' ) ;
#64 = CIRCLE ( 'NONE', #101, 2.500000000000001776 ) ;
#65 = CC_DESIGN_DATE_AND_TIME_ASSIGNMENT ( #140, #21, ( #41 ) ) ;
#66 = ORIENTED_EDGE ( 'NONE', *, *, #52, .T. ) ;
#67 = ORIENTED_EDGE ( 'NONE', *, *, #185, .F. ) ;
#68 = DIRECTION ( 'NONE',  ( -4.275831445896958607E-31, -1.000000000000000000, -1.224646799147353207E-16 ) ) ;
#69 = UNCERTAINTY_MEASURE_WITH_UNIT (LENGTH_MEASURE( 1.000000000000000082E-05 ), #97, 'distance_accuracy_value', 'NONE');
#70 = CARTESIAN_POINT ( 'NONE',  ( 1.047444401652939375E-14, 0.0000000000000000000, 2.999999999999998224 ) ) ;
#71 = CARTESIAN_POINT ( 'NONE',  ( 1.728283262727351074E-13, -6.062001655779398511E-15, 49.50000000000000000 ) ) ;
#72 = ADVANCED_FACE ( 'NONE', ( #139, #89 ), #108, .T. ) ;
#73 = DIRECTION ( 'NONE',  ( 3.491481338843133355E-15, -0.0000000000000000000, 1.000000000000000000 ) ) ;
#74 = PERSON_AND_ORGANIZATION ( #182, #121 ) ;
#75 = VERTEX_POINT ( 'NONE', #4 ) ;
#76 = PERSON_AND_ORGANIZATION ( #182, #121 ) ;
#77 = CIRCLE ( 'NONE', #204, 3.000000000000001776 ) ;
#78 =( NAMED_UNIT ( * ) SI_UNIT ( $, .STERADIAN. ) SOLID_ANGLE_UNIT ( ) );
#79 = APPLICATION_PROTOCOL_DEFINITION ( 'international standard', 'config_control_design', 1994, #81 ) ;
#80 = COORDINATED_UNIVERSAL_TIME_OFFSET ( 1, 0, .AHEAD. ) ;
#81 = APPLICATION_CONTEXT ( 'configuration controlled 3d designs of mechanical parts and assemblies' ) ;
#82 = DIRECTION ( 'NONE',  ( -3.491481338843133355E-15, 1.224646799147353207E-16, -1.000000000000000000 ) ) ;
#83 = APPROVAL_PERSON_ORGANIZATION ( #23, #138, #42 ) ;
#84 = AXIS2_PLACEMENT_3D ( 'NONE', #221, #155, #68 ) ;
#85 = EDGE_LOOP ( 'NONE', ( #211 ) ) ;
#86 = AXIS2_PLACEMENT_3D ( 'NONE', #53, #73, #91 ) ;
#87 = CARTESIAN_POINT ( 'NONE',  ( 1.047444401652939375E-14, 0.0000000000000000000, 2.999999999999998224 ) ) ;
#88 = CC_DESIGN_PERSON_AND_ORGANIZATION_ASSIGNMENT ( #151, #112, ( #177 ) ) ;
#89 = FACE_OUTER_BOUND ( 'NONE', #134, .T. ) ;
#90 = CARTESIAN_POINT ( 'NONE',  ( -3.206816838010677856E-31, 1.124799933034399755E-32, -9.184688465421452921E-17 ) ) ;
#91 = DIRECTION ( 'NONE',  ( 1.000000000000000000, 0.0000000000000000000, -3.491481338843133750E-15 ) ) ;
#92 = SHAPE_DEFINITION_REPRESENTATION ( #51, #168 ) ;
#93 = APPLICATION_CONTEXT ( 'configuration controlled 3d designs of mechanical parts and assemblies' ) ;
#94 = PRODUCT_DEFINITION_FORMATION_WITH_SPECIFIED_SOURCE ( 'ANY', '', #106, .NOT_KNOWN. ) ;
#95 = CARTESIAN_POINT ( 'NONE',  ( 1.500000000000000000, 0.0000000000000000000, -5.237222008264700033E-15 ) ) ;
#96 = AXIS2_PLACEMENT_3D ( 'NONE', #159, #144, #107 ) ;
#97 =( LENGTH_UNIT ( ) NAMED_UNIT ( * ) SI_UNIT ( .MILLI., .METRE. ) );
#98 = EDGE_LOOP ( 'NONE', ( #119 ) ) ;
#99 = ORIENTED_EDGE ( 'NONE', *, *, #207, .T. ) ;
#100 = FACE_OUTER_BOUND ( 'NONE', #189, .T. ) ;
#101 = AXIS2_PLACEMENT_3D ( 'NONE', #18, #55, #20 ) ;
#102 = FACE_OUTER_BOUND ( 'NONE', #136, .T. ) ;
#103 = CLOSED_SHELL ( 'NONE', ( #72, #13, #122, #135, #31 ) ) ;
#104 = DIRECTION ( 'NONE',  ( 3.491481338843133355E-15, -0.0000000000000000000, 1.000000000000000000 ) ) ;
#105 = CALENDAR_DATE ( 2021, 10, 11 ) ;
#106 = PRODUCT ( '63828', '63828', '', ( #62 ) ) ;
#107 = DIRECTION ( 'NONE',  ( 4.275831445896958607E-31, 1.000000000000000000, 1.224646799147353207E-16 ) ) ;
#108 = CYLINDRICAL_SURFACE ( 'NONE', #96, 2.999999999999999112 ) ;
#109 = VERTEX_POINT ( 'NONE', #218 ) ;
#110 = CIRCLE ( 'NONE', #44, 1.500000000000000000 ) ;
#111 = CC_DESIGN_PERSON_AND_ORGANIZATION_ASSIGNMENT ( #142, #146, ( #41 ) ) ;
#112 = PERSON_AND_ORGANIZATION_ROLE ( 'creator' ) ;
#113 = MANIFOLD_SOLID_BREP ( 'Corps-Déplacer/Copier1[2]', #6 ) ;
#114 = PERSON_AND_ORGANIZATION_ROLE ( 'design_owner' ) ;
#115 = CALENDAR_DATE ( 2021, 10, 11 ) ;
#116 = AXIS2_PLACEMENT_3D ( 'NONE', #163, #125, #176 ) ;
#117 = FACE_OUTER_BOUND ( 'NONE', #205, .T. ) ;
#118 = ORIENTED_EDGE ( 'NONE', *, *, #175, .F. ) ;
#119 = ORIENTED_EDGE ( 'NONE', *, *, #185, .T. ) ;
#120 = APPROVAL_ROLE ( '' ) ;
#121 = ORGANIZATION ( 'UNSPECIFIED', 'UNSPECIFIED', '' ) ;
#122 = ADVANCED_FACE ( 'NONE', ( #102 ), #15, .F. ) ;
#123 = DIRECTION ( 'NONE',  ( 1.000000000000000000, 0.0000000000000000000, -3.469446951953615372E-15 ) ) ;
#124 = DIRECTION ( 'NONE',  ( 0.0000000000000000000, 1.000000000000000000, 0.0000000000000000000 ) ) ;
#125 = DIRECTION ( 'NONE',  ( 3.491481338843133355E-15, -1.224646799147353207E-16, 1.000000000000000000 ) ) ;
#126 = CC_DESIGN_SECURITY_CLASSIFICATION ( #41, ( #94 ) ) ;
#127 = CARTESIAN_POINT ( 'NONE',  ( -2.999999999999972466, 0.0000000000000000000, 7.663689526544413155 ) ) ;
#128 = AXIS2_PLACEMENT_3D ( 'NONE', #212, #162, #22 ) ;
#129 = APPLICATION_PROTOCOL_DEFINITION ( 'international standard', 'config_control_design', 1994, #93 ) ;
#130 = CALENDAR_DATE ( 2021, 10, 11 ) ;
#131 = LOCAL_TIME ( 7, 36, 44.00000000000000000, #80 ) ;
#132 = APPROVAL_ROLE ( '' ) ;
#133 = CONICAL_SURFACE ( 'NONE', #193, 2.500000000000001776, 0.7853981633974479459 ) ;
#134 = EDGE_LOOP ( 'NONE', ( #137 ) ) ;
#135 = ADVANCED_FACE ( 'NONE', ( #196, #3 ), #26, .F. ) ;
#136 = EDGE_LOOP ( 'NONE', ( #30 ) ) ;
#137 = ORIENTED_EDGE ( 'NONE', *, *, #52, .F. ) ;
#138 = APPROVAL ( #11, 'UNSPECIFIED' ) ;
#139 = FACE_OUTER_BOUND ( 'NONE', #98, .T. ) ;
#140 = DATE_AND_TIME ( #160, #172 ) ;
#141 = DIRECTION ( 'NONE',  ( -3.491481338843133355E-15, 1.224646799147353207E-16, -1.000000000000000000 ) ) ;
#142 = PERSON_AND_ORGANIZATION ( #182, #121 ) ;
#143 = EDGE_CURVE ( 'NONE', #109, #109, #215, .T. ) ;
#144 = DIRECTION ( 'NONE',  ( -3.491481338843133355E-15, 1.224646799147353207E-16, -1.000000000000000000 ) ) ;
#145 = DIRECTION ( 'NONE',  ( 3.491481338843133355E-15, -1.224646799147353207E-16, 1.000000000000000000 ) ) ;
#146 = PERSON_AND_ORGANIZATION_ROLE ( 'classification_officer' ) ;
#147 = PRODUCT_RELATED_PRODUCT_CATEGORY ( 'detail', '', ( #106 ) ) ;
#148 = VERTEX_POINT ( 'NONE', #217 ) ;
#149 = APPROVAL_DATE_TIME ( #167, #138 ) ;
#150 = CARTESIAN_POINT ( 'NONE',  ( 1.728283262727351074E-13, 2.999999999999995559, 49.50000000000000000 ) ) ;
#151 = PERSON_AND_ORGANIZATION ( #182, #121 ) ;
#152 = LOCAL_TIME ( 7, 36, 44.00000000000000000, #45 ) ;
#153 = DIRECTION ( 'NONE',  ( 0.0000000000000000000, 1.000000000000000000, 0.0000000000000000000 ) ) ;
#154 = CC_DESIGN_PERSON_AND_ORGANIZATION_ASSIGNMENT ( #76, #158, ( #94 ) ) ;
#155 = DIRECTION ( 'NONE',  ( 3.491481338843133355E-15, -1.224646799147353207E-16, 1.000000000000000000 ) ) ;
#156 = DESIGN_CONTEXT ( 'detailed design', #93, 'design' ) ;
#157 = CIRCLE ( 'NONE', #60, 2.999999999999999112 ) ;
#158 = PERSON_AND_ORGANIZATION_ROLE ( 'design_supplier' ) ;
#159 = CARTESIAN_POINT ( 'NONE',  ( 0.0000000000000000000, 0.0000000000000000000, 0.0000000000000000000 ) ) ;
#160 = CALENDAR_DATE ( 2021, 10, 11 ) ;
#161 = EDGE_LOOP ( 'NONE', ( #99 ) ) ;
#162 = DIRECTION ( 'NONE',  ( -3.491481338843133355E-15, 1.224646799147353207E-16, -1.000000000000000000 ) ) ;
#163 = CARTESIAN_POINT ( 'NONE',  ( 1.047444401652940007E-14, -4.336808689942025625E-16, 3.000000000000000000 ) ) ;
#164 = LOCAL_TIME ( 7, 36, 44.00000000000000000, #202 ) ;
#165 = DIRECTION ( 'NONE',  ( 0.0000000000000000000, 0.0000000000000000000, 1.000000000000000000 ) ) ;
#166 = ADVANCED_FACE ( 'NONE', ( #39, #208 ), #194, .T. ) ;
#167 = DATE_AND_TIME ( #130, #131 ) ;
#168 = ADVANCED_BREP_SHAPE_REPRESENTATION ( '63828', ( #38, #113, #184 ), #5 ) ;
#169 = PERSON_AND_ORGANIZATION ( #182, #121 ) ;
#170 = PERSON_AND_ORGANIZATION_ROLE ( 'creator' ) ;
#171 = FACE_BOUND ( 'NONE', #161, .T. ) ;
#172 = LOCAL_TIME ( 7, 36, 44.00000000000000000, #54 ) ;
#173 = PLANE ( 'NONE',  #84 ) ;
#174 = DIRECTION ( 'NONE',  ( 1.000000000000000000, 0.0000000000000000000, -3.491481338843133355E-15 ) ) ;
#175 = EDGE_CURVE ( 'NONE', #203, #203, #110, .T. ) ;
#176 = DIRECTION ( 'NONE',  ( -4.275831445896958607E-31, -1.000000000000000000, -1.224646799147353207E-16 ) ) ;
#177 = PRODUCT_DEFINITION ( 'UNKNOWN', '', #94, #156 ) ;
#178 = LOCAL_TIME ( 7, 36, 44.00000000000000000, #214 ) ;
#179 = CARTESIAN_POINT ( 'NONE',  ( 2.675762896861735115E-14, 0.0000000000000000000, 7.663689526544403385 ) ) ;
#180 = CARTESIAN_POINT ( 'NONE',  ( 0.0000000000000000000, 0.0000000000000000000, 0.0000000000000000000 ) ) ;
#181 = SECURITY_CLASSIFICATION_LEVEL ( 'unclassified' ) ;
#182 = PERSON ( 'UNSPECIFIED', 'UNSPECIFIED', 'UNSPECIFIED', ('UNSPECIFIED'), ('UNSPECIFIED'), ('UNSPECIFIED') ) ;
#183 = DIRECTION ( 'NONE',  ( -3.491481338843133355E-15, 0.0000000000000000000, -1.000000000000000000 ) ) ;
#184 = AXIS2_PLACEMENT_3D ( 'NONE', #9, #165, #24 ) ;
#185 = EDGE_CURVE ( 'NONE', #61, #61, #77, .T. ) ;
#186 = APPROVAL_DATE_TIME ( #188, #47 ) ;
#187 = AXIS2_PLACEMENT_3D ( 'NONE', #70, #1, #123 ) ;
#188 = DATE_AND_TIME ( #115, #152 ) ;
#189 = EDGE_LOOP ( 'NONE', ( #222 ) ) ;
#190 = EDGE_LOOP ( 'NONE', ( #67 ) ) ;
#191 = ORIENTED_EDGE ( 'NONE', *, *, #143, .T. ) ;
#192 = APPROVAL_STATUS ( 'not_yet_approved' ) ;
#193 = AXIS2_PLACEMENT_3D ( 'NONE', #12, #82, #153 ) ;
#194 = CYLINDRICAL_SURFACE ( 'NONE', #49, 1.499999999999999778 ) ;
#195 = CC_DESIGN_DATE_AND_TIME_ASSIGNMENT ( #219, #63, ( #177 ) ) ;
#196 = FACE_OUTER_BOUND ( 'NONE', #28, .T. ) ;
#197 = APPROVAL_PERSON_ORGANIZATION ( #74, #59, #120 ) ;
#198 = FACE_OUTER_BOUND ( 'NONE', #85, .T. ) ;
#199 = DIRECTION ( 'NONE',  ( -4.275831445896958607E-31, -1.000000000000000000, -1.224646799147353207E-16 ) ) ;
#200 = APPROVAL_DATE_TIME ( #56, #59 ) ;
#201 = AXIS2_PLACEMENT_3D ( 'NONE', #87, #37, #213 ) ;
#202 = COORDINATED_UNIVERSAL_TIME_OFFSET ( 1, 0, .AHEAD. ) ;
#203 = VERTEX_POINT ( 'NONE', #95 ) ;
#204 = AXIS2_PLACEMENT_3D ( 'NONE', #71, #141, #124 ) ;
#205 = EDGE_LOOP ( 'NONE', ( #118 ) ) ;
#206 = EDGE_LOOP ( 'NONE', ( #32 ) ) ;
#207 = EDGE_CURVE ( 'NONE', #148, #148, #64, .T. ) ;
#208 = FACE_OUTER_BOUND ( 'NONE', #206, .T. ) ;
#209 = CC_DESIGN_APPROVAL ( #47, ( #94 ) ) ;
#210 = DIRECTION ( 'NONE',  ( -1.000000000000000000, 0.0000000000000000000, 3.469446951953615372E-15 ) ) ;
#211 = ORIENTED_EDGE ( 'NONE', *, *, #143, .F. ) ;
#212 = CARTESIAN_POINT ( 'NONE',  ( 1.745740669421566678E-13, 1.874699728327314346E-32, 50.00000000000000000 ) ) ;
#213 = DIRECTION ( 'NONE',  ( 1.000000000000000000, 0.0000000000000000000, -3.469446951953615372E-15 ) ) ;
#214 = COORDINATED_UNIVERSAL_TIME_OFFSET ( 1, 0, .AHEAD. ) ;
#215 = CIRCLE ( 'NONE', #201, 1.499999999999999556 ) ;
#216 = CC_DESIGN_PERSON_AND_ORGANIZATION_ASSIGNMENT ( #169, #114, ( #106 ) ) ;
#217 = CARTESIAN_POINT ( 'NONE',  ( 1.745740669421566678E-13, 2.499999999999995559, 50.00000000000000000 ) ) ;
#218 = CARTESIAN_POINT ( 'NONE',  ( 1.500000000000009992, 0.0000000000000000000, 2.999999999999993339 ) ) ;
#219 = DATE_AND_TIME ( #10, #164 ) ;
#220 = APPROVAL_PERSON_ORGANIZATION ( #43, #47, #132 ) ;
#221 = CARTESIAN_POINT ( 'NONE',  ( 1.047444401652940007E-14, -4.336808689942025625E-16, 3.000000000000000000 ) ) ;
#222 = ORIENTED_EDGE ( 'NONE', *, *, #34, .T. ) ;
#223 = CIRCLE ( 'NONE', #187, 1.499999999999999556 ) ;
ENDSEC;
END-ISO-10303-21;
