ISO-10303-21;
HEADER;
FILE_DESCRIPTION (( 'STEP AP203' ),
    '1' );
FILE_NAME ('63827.step',
    '2021-11-10T06:36:44',
    ( '' ),
    ( '' ),
    'SwSTEP 2.0',
    'SolidWorks 2019',
    '' );
FILE_SCHEMA (( 'CONFIG_CONTROL_DESIGN' ));
ENDSEC;

DATA;
#1 = ADVANCED_BREP_SHAPE_REPRESENTATION ( '63827', ( #91, #175, #9 ), #127 ) ;
#2 = ORIENTED_EDGE ( 'NONE', *, *, #40, .F. ) ;
#3 = ORIENTED_EDGE ( 'NONE', *, *, #159, .T. ) ;
#4 = CC_DESIGN_PERSON_AND_ORGANIZATION_ASSIGNMENT ( #17, #204, ( #95 ) ) ;
#5 = SHAPE_DEFINITION_REPRESENTATION ( #23, #1 ) ;
#6 = CARTESIAN_POINT ( 'NONE',  ( 1.250000000000009770, 0.0000000000000000000, 2.499999999999993339 ) ) ;
#7 =( NAMED_UNIT ( * ) SI_UNIT ( $, .STERADIAN. ) SOLID_ANGLE_UNIT ( ) );
#8 = CARTESIAN_POINT ( 'NONE',  ( 1.745740669421566678E-13, 1.874699728327314346E-32, 50.00000000000000000 ) ) ;
#9 = AXIS2_PLACEMENT_3D ( 'NONE', #179, #194, #11 ) ;
#10 = APPROVAL ( #206, 'UNSPECIFIED' ) ;
#11 = DIRECTION ( 'NONE',  ( 1.000000000000000000, 0.0000000000000000000, 0.0000000000000000000 ) ) ;
#12 = DIRECTION ( 'NONE',  ( -3.491481338843133355E-15, 1.224646799147353207E-16, -1.000000000000000000 ) ) ;
#13 = VERTEX_POINT ( 'NONE', #193 ) ;
#14 = COORDINATED_UNIVERSAL_TIME_OFFSET ( 1, 0, .AHEAD. ) ;
#15 = CARTESIAN_POINT ( 'NONE',  ( 0.0000000000000000000, 0.0000000000000000000, 0.0000000000000000000 ) ) ;
#16 = DIRECTION ( 'NONE',  ( -3.491481338843133355E-15, 0.0000000000000000000, -1.000000000000000000 ) ) ;
#17 = PERSON_AND_ORGANIZATION ( #172, #58 ) ;
#18 = AXIS2_PLACEMENT_3D ( 'NONE', #116, #170, #181 ) ;
#19 = FACE_OUTER_BOUND ( 'NONE', #158, .T. ) ;
#20 = APPROVAL ( #108, 'UNSPECIFIED' ) ;
#21 = PERSON_AND_ORGANIZATION ( #172, #58 ) ;
#22 = PERSON_AND_ORGANIZATION ( #172, #58 ) ;
#23 = PRODUCT_DEFINITION_SHAPE ( 'NONE', 'NONE',  #200 ) ;
#24 = ADVANCED_FACE ( 'NONE', ( #83 ), #215, .F. ) ;
#25 = EDGE_LOOP ( 'NONE', ( #103 ) ) ;
#26 = ORIENTED_EDGE ( 'NONE', *, *, #157, .F. ) ;
#27 = AXIS2_PLACEMENT_3D ( 'NONE', #73, #202, #203 ) ;
#28 = CIRCLE ( 'NONE', #104, 1.250000000000001110 ) ;
#29 = UNCERTAINTY_MEASURE_WITH_UNIT (LENGTH_MEASURE( 1.000000000000000082E-05 ), #66, 'distance_accuracy_value', 'NONE');
#30 = PERSON_AND_ORGANIZATION ( #172, #58 ) ;
#31 = DIRECTION ( 'NONE',  ( 3.491481338843133355E-15, -0.0000000000000000000, 1.000000000000000000 ) ) ;
#32 = CALENDAR_DATE ( 2021, 10, 11 ) ;
#33 = DIRECTION ( 'NONE',  ( -3.491481338843133355E-15, 1.224646799147353207E-16, -1.000000000000000000 ) ) ;
#34 = APPLICATION_CONTEXT ( 'configuration controlled 3d designs of mechanical parts and assemblies' ) ;
#35 = APPLICATION_PROTOCOL_DEFINITION ( 'international standard', 'config_control_design', 1994, #220 ) ;
#36 = CARTESIAN_POINT ( 'NONE',  ( 8.728703347107831810E-15, -3.614007241618354194E-16, 2.499999999999999556 ) ) ;
#37 = FACE_OUTER_BOUND ( 'NONE', #89, .T. ) ;
#38 = ADVANCED_FACE ( 'NONE', ( #81 ), #135, .F. ) ;
#39 = DIRECTION ( 'NONE',  ( -3.491481338843133355E-15, 1.224646799147353207E-16, -1.000000000000000000 ) ) ;
#40 = EDGE_CURVE ( 'NONE', #129, #129, #65, .T. ) ;
#41 = TOROIDAL_SURFACE ( 'NONE', #141, 9.250000000000001776, 8.000000000000000000 ) ;
#42 = ORIENTED_EDGE ( 'NONE', *, *, #107, .T. ) ;
#43 = APPROVAL_STATUS ( 'not_yet_approved' ) ;
#44 = CALENDAR_DATE ( 2021, 10, 11 ) ;
#45 = ORIENTED_EDGE ( 'NONE', *, *, #157, .T. ) ;
#46 = AXIS2_PLACEMENT_3D ( 'NONE', #56, #39, #180 ) ;
#47 = LOCAL_TIME ( 7, 36, 44.00000000000000000, #219 ) ;
#48 = DIRECTION ( 'NONE',  ( 1.000000000000000000, 0.0000000000000000000, -3.491481338843133355E-15 ) ) ;
#49 = APPLICATION_PROTOCOL_DEFINITION ( 'international standard', 'config_control_design', 1994, #34 ) ;
#50 = DIRECTION ( 'NONE',  ( 4.275831445896958607E-31, 1.000000000000000000, 1.224646799147353207E-16 ) ) ;
#51 = PERSON_AND_ORGANIZATION ( #172, #58 ) ;
#52 = CARTESIAN_POINT ( 'NONE',  ( 1.250000000000009770, 0.0000000000000000000, 2.499999999999993339 ) ) ;
#53 = FACE_OUTER_BOUND ( 'NONE', #223, .T. ) ;
#54 = AXIS2_PLACEMENT_3D ( 'NONE', #36, #146, #163 ) ;
#55 = DIRECTION ( 'NONE',  ( -3.491481338843133355E-15, 1.224646799147353207E-16, -1.000000000000000000 ) ) ;
#56 = CARTESIAN_POINT ( 'NONE',  ( 0.0000000000000000000, 0.0000000000000000000, 0.0000000000000000000 ) ) ;
#57 = APPROVAL ( #43, 'UNSPECIFIED' ) ;
#58 = ORGANIZATION ( 'UNSPECIFIED', 'UNSPECIFIED', '' ) ;
#59 = CC_DESIGN_DATE_AND_TIME_ASSIGNMENT ( #100, #124, ( #95 ) ) ;
#60 = CC_DESIGN_PERSON_AND_ORGANIZATION_ASSIGNMENT ( #51, #134, ( #114 ) ) ;
#61 = CC_DESIGN_PERSON_AND_ORGANIZATION_ASSIGNMENT ( #71, #196, ( #74 ) ) ;
#62 = EDGE_LOOP ( 'NONE', ( #26 ) ) ;
#63 = LOCAL_TIME ( 7, 36, 44.00000000000000000, #84 ) ;
#64 = ADVANCED_FACE ( 'NONE', ( #111, #184 ), #41, .F. ) ;
#65 = CIRCLE ( 'NONE', #121, 2.500000000000001776 ) ;
#66 =( LENGTH_UNIT ( ) NAMED_UNIT ( * ) SI_UNIT ( .MILLI., .METRE. ) );
#67 = VERTEX_POINT ( 'NONE', #52 ) ;
#68 = DIRECTION ( 'NONE',  ( -4.275831445896958607E-31, -1.000000000000000000, -1.224646799147353207E-16 ) ) ;
#69 = FACE_BOUND ( 'NONE', #138, .T. ) ;
#70 = CLOSED_SHELL ( 'NONE', ( #147, #136, #176 ) ) ;
#71 = PERSON_AND_ORGANIZATION ( #172, #58 ) ;
#72 = DIRECTION ( 'NONE',  ( 0.0000000000000000000, 1.000000000000000000, 0.0000000000000000000 ) ) ;
#73 = CARTESIAN_POINT ( 'NONE',  ( 8.728703347107831810E-15, -3.614007241618354194E-16, 2.499999999999999556 ) ) ;
#74 = PRODUCT ( '63827', '63827', '', ( #142 ) ) ;
#75 = APPROVAL_PERSON_ORGANIZATION ( #22, #10, #149 ) ;
#76 = AXIS2_PLACEMENT_3D ( 'NONE', #80, #33, #218 ) ;
#77 = CC_DESIGN_DATE_AND_TIME_ASSIGNMENT ( #201, #122, ( #200 ) ) ;
#78 = CC_DESIGN_APPROVAL ( #20, ( #200 ) ) ;
#79 =( NAMED_UNIT ( * ) PLANE_ANGLE_UNIT ( ) SI_UNIT ( $, .RADIAN. ) );
#80 = CARTESIAN_POINT ( 'NONE',  ( 1.745740669421566678E-13, -6.123233995736766085E-15, 50.00000000000000000 ) ) ;
#81 = FACE_OUTER_BOUND ( 'NONE', #25, .T. ) ;
#82 = CALENDAR_DATE ( 2021, 10, 11 ) ;
#83 = FACE_OUTER_BOUND ( 'NONE', #90, .T. ) ;
#84 = COORDINATED_UNIVERSAL_TIME_OFFSET ( 1, 0, .AHEAD. ) ;
#85 = CARTESIAN_POINT ( 'NONE',  ( 8.728703347107825500E-15, 0.0000000000000000000, 2.499999999999997780 ) ) ;
#86 = AXIS2_PLACEMENT_3D ( 'NONE', #97, #169, #68 ) ;
#87 = APPROVAL_ROLE ( '' ) ;
#88 = DIRECTION ( 'NONE',  ( 1.000000000000000000, 0.0000000000000000000, -3.491481338843133355E-15 ) ) ;
#89 = EDGE_LOOP ( 'NONE', ( #126 ) ) ;
#90 = EDGE_LOOP ( 'NONE', ( #2 ) ) ;
#91 = MANIFOLD_SOLID_BREP ( 'Corps-Déplacer/Copier1[1]', #112 ) ;
#92 = PERSON_AND_ORGANIZATION_ROLE ( 'creator' ) ;
#93 = ADVANCED_FACE ( 'NONE', ( #133, #19 ), #197, .T. ) ;
#94 = DIRECTION ( 'NONE',  ( 1.000000000000000000, 0.0000000000000000000, -3.469446951953611033E-15 ) ) ;
#95 = SECURITY_CLASSIFICATION ( '', '', #183 ) ;
#96 = CARTESIAN_POINT ( 'NONE',  ( 0.0000000000000000000, 0.0000000000000000000, 0.0000000000000000000 ) ) ;
#97 = CARTESIAN_POINT ( 'NONE',  ( -3.206816838010677856E-31, 1.124799933034399755E-32, -9.184688465421452921E-17 ) ) ;
#98 = CYLINDRICAL_SURFACE ( 'NONE', #125, 1.250000000000000666 ) ;
#99 = CIRCLE ( 'NONE', #128, 1.250000000000001110 ) ;
#100 = DATE_AND_TIME ( #44, #137 ) ;
#101 = APPROVAL_DATE_TIME ( #186, #10 ) ;
#102 = EDGE_LOOP ( 'NONE', ( #153 ) ) ;
#103 = ORIENTED_EDGE ( 'NONE', *, *, #213, .F. ) ;
#104 = AXIS2_PLACEMENT_3D ( 'NONE', #212, #31, #94 ) ;
#105 = LOCAL_TIME ( 7, 36, 44.00000000000000000, #14 ) ;
#106 = PERSON_AND_ORGANIZATION_ROLE ( 'design_supplier' ) ;
#107 = EDGE_CURVE ( 'NONE', #13, #13, #191, .T. ) ;
#108 = APPROVAL_STATUS ( 'not_yet_approved' ) ;
#109 = CARTESIAN_POINT ( 'NONE',  ( 8.728703347107828655E-15, 0.0000000000000000000, 2.499999999999998668 ) ) ;
#110 = COORDINATED_UNIVERSAL_TIME_OFFSET ( 1, 0, .AHEAD. ) ;
#111 = FACE_OUTER_BOUND ( 'NONE', #140, .T. ) ;
#112 = CLOSED_SHELL ( 'NONE', ( #93, #139, #24, #64, #38 ) ) ;
#113 = CONICAL_SURFACE ( 'NONE', #76, 2.500000000000001776, 0.7853981633974479459 ) ;
#114 = PRODUCT_DEFINITION_FORMATION_WITH_SPECIFIED_SOURCE ( 'ANY', '', #74, .NOT_KNOWN. ) ;
#115 = VERTEX_POINT ( 'NONE', #6 ) ;
#116 = CARTESIAN_POINT ( 'NONE',  ( 1.728283262727351074E-13, -6.062001655779398511E-15, 49.50000000000000000 ) ) ;
#117 = CARTESIAN_POINT ( 'NONE',  ( 1.728283262727351074E-13, 2.999999999999995559, 49.50000000000000000 ) ) ;
#118 = ORIENTED_EDGE ( 'NONE', *, *, #188, .T. ) ;
#119 = DIRECTION ( 'NONE',  ( -1.000000000000000000, 0.0000000000000000000, 3.469446951953615372E-15 ) ) ;
#120 = CC_DESIGN_PERSON_AND_ORGANIZATION_ASSIGNMENT ( #30, #92, ( #200 ) ) ;
#121 = AXIS2_PLACEMENT_3D ( 'NONE', #131, #55, #72 ) ;
#122 = DATE_TIME_ROLE ( 'creation_date' ) ;
#123 = CALENDAR_DATE ( 2021, 10, 11 ) ;
#124 = DATE_TIME_ROLE ( 'classification_date' ) ;
#125 = AXIS2_PLACEMENT_3D ( 'NONE', #96, #182, #143 ) ;
#126 = ORIENTED_EDGE ( 'NONE', *, *, #188, .F. ) ;
#127 =( GEOMETRIC_REPRESENTATION_CONTEXT ( 3 ) GLOBAL_UNCERTAINTY_ASSIGNED_CONTEXT ( ( #29 ) ) GLOBAL_UNIT_ASSIGNED_CONTEXT ( ( #66, #79, #7 ) ) REPRESENTATION_CONTEXT ( 'NONE', 'WORKASPACE' ) );
#128 = AXIS2_PLACEMENT_3D ( 'NONE', #85, #217, #148 ) ;
#129 = VERTEX_POINT ( 'NONE', #154 ) ;
#130 = DIRECTION ( 'NONE',  ( 3.491481338843133355E-15, -0.0000000000000000000, 1.000000000000000000 ) ) ;
#131 = CARTESIAN_POINT ( 'NONE',  ( 1.745740669421566678E-13, -6.123233995736766085E-15, 50.00000000000000000 ) ) ;
#132 = PERSON_AND_ORGANIZATION ( #172, #58 ) ;
#133 = FACE_OUTER_BOUND ( 'NONE', #189, .T. ) ;
#134 = PERSON_AND_ORGANIZATION_ROLE ( 'creator' ) ;
#135 = PLANE ( 'NONE',  #27 ) ;
#136 = ADVANCED_FACE ( 'NONE', ( #144, #166 ), #98, .T. ) ;
#137 = LOCAL_TIME ( 7, 36, 44.00000000000000000, #207 ) ;
#138 = EDGE_LOOP ( 'NONE', ( #173 ) ) ;
#139 = ADVANCED_FACE ( 'NONE', ( #178, #69 ), #113, .T. ) ;
#140 = EDGE_LOOP ( 'NONE', ( #185 ) ) ;
#141 = AXIS2_PLACEMENT_3D ( 'NONE', #109, #199, #48 ) ;
#142 = MECHANICAL_CONTEXT ( 'NONE', #220, 'mechanical' ) ;
#143 = DIRECTION ( 'NONE',  ( 1.000000000000000000, 0.0000000000000000000, -3.491481338843133355E-15 ) ) ;
#144 = FACE_OUTER_BOUND ( 'NONE', #209, .T. ) ;
#145 = DATE_AND_TIME ( #32, #63 ) ;
#146 = DIRECTION ( 'NONE',  ( 3.491481338843133355E-15, -1.224646799147353207E-16, 1.000000000000000000 ) ) ;
#147 = ADVANCED_FACE ( 'NONE', ( #53 ), #214, .T. ) ;
#148 = DIRECTION ( 'NONE',  ( 1.000000000000000000, 0.0000000000000000000, -3.469446951953611033E-15 ) ) ;
#149 = APPROVAL_ROLE ( '' ) ;
#150 = EDGE_LOOP ( 'NONE', ( #42 ) ) ;
#151 = AXIS2_PLACEMENT_3D ( 'NONE', #8, #12, #50 ) ;
#152 = APPROVAL_PERSON_ORGANIZATION ( #132, #20, #167 ) ;
#153 = ORIENTED_EDGE ( 'NONE', *, *, #159, .F. ) ;
#154 = CARTESIAN_POINT ( 'NONE',  ( 1.745740669421566678E-13, 2.499999999999995559, 50.00000000000000000 ) ) ;
#155 = ORIENTED_EDGE ( 'NONE', *, *, #107, .F. ) ;
#156 = AXIS2_PLACEMENT_3D ( 'NONE', #15, #130, #88 ) ;
#157 = EDGE_CURVE ( 'NONE', #160, #160, #171, .T. ) ;
#158 = EDGE_LOOP ( 'NONE', ( #155 ) ) ;
#159 = EDGE_CURVE ( 'NONE', #67, #67, #28, .T. ) ;
#160 = VERTEX_POINT ( 'NONE', #117 ) ;
#161 = DESIGN_CONTEXT ( 'detailed design', #34, 'design' ) ;
#162 = VERTEX_POINT ( 'NONE', #211 ) ;
#163 = DIRECTION ( 'NONE',  ( -4.275831445896958607E-31, -1.000000000000000000, -1.224646799147353207E-16 ) ) ;
#164 = CC_DESIGN_APPROVAL ( #10, ( #95 ) ) ;
#165 = APPROVAL_DATE_TIME ( #198, #20 ) ;
#166 = FACE_OUTER_BOUND ( 'NONE', #102, .T. ) ;
#167 = APPROVAL_ROLE ( '' ) ;
#168 = CARTESIAN_POINT ( 'NONE',  ( 2.616427462728180089E-14, 0.0000000000000000000, 7.493746088859539967 ) ) ;
#169 = DIRECTION ( 'NONE',  ( 3.491481338843133355E-15, -1.224646799147353207E-16, 1.000000000000000000 ) ) ;
#170 = DIRECTION ( 'NONE',  ( -3.491481338843133355E-15, 1.224646799147353207E-16, -1.000000000000000000 ) ) ;
#171 = CIRCLE ( 'NONE', #18, 3.000000000000001776 ) ;
#172 = PERSON ( 'UNSPECIFIED', 'UNSPECIFIED', 'UNSPECIFIED', ('UNSPECIFIED'), ('UNSPECIFIED'), ('UNSPECIFIED') ) ;
#173 = ORIENTED_EDGE ( 'NONE', *, *, #40, .T. ) ;
#174 = LOCAL_TIME ( 7, 36, 44.00000000000000000, #110 ) ;
#175 = MANIFOLD_SOLID_BREP ( 'Corps-Déplacer/Copier1[2]', #70 ) ;
#176 = ADVANCED_FACE ( 'NONE', ( #37 ), #195, .F. ) ;
#177 = CALENDAR_DATE ( 2021, 10, 11 ) ;
#178 = FACE_OUTER_BOUND ( 'NONE', #62, .T. ) ;
#179 = CARTESIAN_POINT ( 'NONE',  ( 0.0000000000000000000, 0.0000000000000000000, 0.0000000000000000000 ) ) ;
#180 = DIRECTION ( 'NONE',  ( 4.275831445896958607E-31, 1.000000000000000000, 1.224646799147353207E-16 ) ) ;
#181 = DIRECTION ( 'NONE',  ( 0.0000000000000000000, 1.000000000000000000, 0.0000000000000000000 ) ) ;
#182 = DIRECTION ( 'NONE',  ( 3.491481338843133355E-15, -0.0000000000000000000, 1.000000000000000000 ) ) ;
#183 = SECURITY_CLASSIFICATION_LEVEL ( 'unclassified' ) ;
#184 = FACE_OUTER_BOUND ( 'NONE', #150, .T. ) ;
#185 = ORIENTED_EDGE ( 'NONE', *, *, #213, .T. ) ;
#186 = DATE_AND_TIME ( #123, #47 ) ;
#187 = AXIS2_PLACEMENT_3D ( 'NONE', #168, #16, #119 ) ;
#188 = EDGE_CURVE ( 'NONE', #162, #162, #208, .T. ) ;
#189 = EDGE_LOOP ( 'NONE', ( #45 ) ) ;
#190 = CC_DESIGN_PERSON_AND_ORGANIZATION_ASSIGNMENT ( #21, #106, ( #114 ) ) ;
#191 = CIRCLE ( 'NONE', #187, 2.999999999999999112 ) ;
#192 = APPROVAL_PERSON_ORGANIZATION ( #210, #57, #87 ) ;
#193 = CARTESIAN_POINT ( 'NONE',  ( -2.999999999999973355, 0.0000000000000000000, 7.493746088859550625 ) ) ;
#194 = DIRECTION ( 'NONE',  ( 0.0000000000000000000, 0.0000000000000000000, 1.000000000000000000 ) ) ;
#195 = PLANE ( 'NONE',  #86 ) ;
#196 = PERSON_AND_ORGANIZATION_ROLE ( 'design_owner' ) ;
#197 = CYLINDRICAL_SURFACE ( 'NONE', #46, 2.999999999999999112 ) ;
#198 = DATE_AND_TIME ( #177, #174 ) ;
#199 = DIRECTION ( 'NONE',  ( 3.491481338843133355E-15, -0.0000000000000000000, 1.000000000000000000 ) ) ;
#200 = PRODUCT_DEFINITION ( 'UNKNOWN', '', #114, #161 ) ;
#201 = DATE_AND_TIME ( #82, #105 ) ;
#202 = DIRECTION ( 'NONE',  ( 3.491481338843133355E-15, -1.224646799147353207E-16, 1.000000000000000000 ) ) ;
#203 = DIRECTION ( 'NONE',  ( -4.275831445896958607E-31, -1.000000000000000000, -1.224646799147353207E-16 ) ) ;
#204 = PERSON_AND_ORGANIZATION_ROLE ( 'classification_officer' ) ;
#205 = CC_DESIGN_SECURITY_CLASSIFICATION ( #95, ( #114 ) ) ;
#206 = APPROVAL_STATUS ( 'not_yet_approved' ) ;
#207 = COORDINATED_UNIVERSAL_TIME_OFFSET ( 1, 0, .AHEAD. ) ;
#208 = CIRCLE ( 'NONE', #156, 1.250000000000000000 ) ;
#209 = EDGE_LOOP ( 'NONE', ( #118 ) ) ;
#210 = PERSON_AND_ORGANIZATION ( #172, #58 ) ;
#211 = CARTESIAN_POINT ( 'NONE',  ( 1.250000000000000000, 0.0000000000000000000, -4.364351673553916694E-15 ) ) ;
#212 = CARTESIAN_POINT ( 'NONE',  ( 8.728703347107825500E-15, 0.0000000000000000000, 2.499999999999997780 ) ) ;
#213 = EDGE_CURVE ( 'NONE', #115, #115, #99, .T. ) ;
#214 = PLANE ( 'NONE',  #54 ) ;
#215 = PLANE ( 'NONE',  #151 ) ;
#216 = APPROVAL_DATE_TIME ( #145, #57 ) ;
#217 = DIRECTION ( 'NONE',  ( 3.491481338843133355E-15, -0.0000000000000000000, 1.000000000000000000 ) ) ;
#218 = DIRECTION ( 'NONE',  ( 0.0000000000000000000, 1.000000000000000000, 0.0000000000000000000 ) ) ;
#219 = COORDINATED_UNIVERSAL_TIME_OFFSET ( 1, 0, .AHEAD. ) ;
#220 = APPLICATION_CONTEXT ( 'configuration controlled 3d designs of mechanical parts and assemblies' ) ;
#221 = CC_DESIGN_APPROVAL ( #57, ( #114 ) ) ;
#222 = PRODUCT_RELATED_PRODUCT_CATEGORY ( 'detail', '', ( #74 ) ) ;
#223 = EDGE_LOOP ( 'NONE', ( #3 ) ) ;
ENDSEC;
END-ISO-10303-21;
