ISO-10303-21;
HEADER;
FILE_DESCRIPTION (( 'STEP AP203' ),
    '1' );
FILE_NAME ('63825.step',
    '2021-11-10T06:36:43',
    ( '' ),
    ( '' ),
    'SwSTEP 2.0',
    'SolidWorks 2019',
    '' );
FILE_SCHEMA (( 'CONFIG_CONTROL_DESIGN' ));
ENDSEC;

DATA;
#1 = DIRECTION ( 'NONE',  ( 3.491481338843133355E-15, -1.224646799147353207E-16, 1.000000000000000000 ) ) ;
#2 = LOCAL_TIME ( 7, 36, 43.00000000000000000, #140 ) ;
#3 = FACE_OUTER_BOUND ( 'NONE', #144, .T. ) ;
#4 =( LENGTH_UNIT ( ) NAMED_UNIT ( * ) SI_UNIT ( .MILLI., .METRE. ) );
#5 = EDGE_CURVE ( 'NONE', #110, #110, #214, .T. ) ;
#6 = PLANE ( 'NONE',  #200 ) ;
#7 = DIRECTION ( 'NONE',  ( 3.491481338843133355E-15, -0.0000000000000000000, 1.000000000000000000 ) ) ;
#8 = ADVANCED_FACE ( 'NONE', ( #136, #52 ), #187, .T. ) ;
#9 = MECHANICAL_CONTEXT ( 'NONE', #163, 'mechanical' ) ;
#10 = APPLICATION_PROTOCOL_DEFINITION ( 'international standard', 'config_control_design', 1994, #163 ) ;
#11 = DATE_AND_TIME ( #182, #33 ) ;
#12 = ORIENTED_EDGE ( 'NONE', *, *, #85, .T. ) ;
#13 = PERSON_AND_ORGANIZATION_ROLE ( 'creator' ) ;
#14 =( GEOMETRIC_REPRESENTATION_CONTEXT ( 3 ) GLOBAL_UNCERTAINTY_ASSIGNED_CONTEXT ( ( #113 ) ) GLOBAL_UNIT_ASSIGNED_CONTEXT ( ( #4, #109, #161 ) ) REPRESENTATION_CONTEXT ( 'NONE', 'WORKASPACE' ) );
#15 = CARTESIAN_POINT ( 'NONE',  ( 8.030407079339200406E-15, 0.0000000000000000000, 2.299999999999998046 ) ) ;
#16 = CARTESIAN_POINT ( 'NONE',  ( -3.206816838010677856E-31, 1.124799933034399755E-32, -9.184688465421452921E-17 ) ) ;
#17 = CIRCLE ( 'NONE', #70, 3.000000000000001776 ) ;
#18 = CC_DESIGN_SECURITY_CLASSIFICATION ( #205, ( #218 ) ) ;
#19 = EDGE_LOOP ( 'NONE', ( #103 ) ) ;
#20 = CARTESIAN_POINT ( 'NONE',  ( 0.0000000000000000000, 0.0000000000000000000, 0.0000000000000000000 ) ) ;
#21 = CC_DESIGN_APPROVAL ( #61, ( #205 ) ) ;
#22 = DIRECTION ( 'NONE',  ( 3.491481338843133355E-15, -0.0000000000000000000, 1.000000000000000000 ) ) ;
#23 = PRODUCT ( '63825', '63825', '', ( #9 ) ) ;
#24 = CIRCLE ( 'NONE', #127, 1.149999999999999911 ) ;
#25 = EDGE_CURVE ( 'NONE', #162, #162, #164, .T. ) ;
#26 = DIRECTION ( 'NONE',  ( 1.000000000000000000, 0.0000000000000000000, -3.491481338843133750E-15 ) ) ;
#27 = DIRECTION ( 'NONE',  ( 0.0000000000000000000, 1.000000000000000000, 0.0000000000000000000 ) ) ;
#28 = CLOSED_SHELL ( 'NONE', ( #32, #68, #35 ) ) ;
#29 = PERSON_AND_ORGANIZATION ( #43, #89 ) ;
#30 = SECURITY_CLASSIFICATION_LEVEL ( 'unclassified' ) ;
#31 = DIRECTION ( 'NONE',  ( 3.491481338843133355E-15, -1.224646799147353207E-16, 1.000000000000000000 ) ) ;
#32 = ADVANCED_FACE ( 'NONE', ( #184 ), #50, .T. ) ;
#33 = LOCAL_TIME ( 7, 36, 43.00000000000000000, #79 ) ;
#34 = CARTESIAN_POINT ( 'NONE',  ( 8.030407079339206717E-15, -3.324886662288886509E-16, 2.299999999999999822 ) ) ;
#35 = ADVANCED_FACE ( 'NONE', ( #3 ), #87, .F. ) ;
#36 = EDGE_LOOP ( 'NONE', ( #189 ) ) ;
#37 = DIRECTION ( 'NONE',  ( -1.000000000000000000, 0.0000000000000000000, 3.469446951953615372E-15 ) ) ;
#38 = MANIFOLD_SOLID_BREP ( 'Corps-Déplacer/Copier1[2]', #28 ) ;
#39 = FACE_OUTER_BOUND ( 'NONE', #36, .T. ) ;
#40 = VERTEX_POINT ( 'NONE', #195 ) ;
#41 = AXIS2_PLACEMENT_3D ( 'NONE', #15, #172, #159 ) ;
#42 = APPLICATION_PROTOCOL_DEFINITION ( 'international standard', 'config_control_design', 1994, #51 ) ;
#43 = PERSON ( 'UNSPECIFIED', 'UNSPECIFIED', 'UNSPECIFIED', ('UNSPECIFIED'), ('UNSPECIFIED'), ('UNSPECIFIED') ) ;
#44 = APPROVAL_STATUS ( 'not_yet_approved' ) ;
#45 = APPROVAL_ROLE ( '' ) ;
#46 = ADVANCED_FACE ( 'NONE', ( #143 ), #102, .F. ) ;
#47 = DATE_TIME_ROLE ( 'creation_date' ) ;
#48 = ORIENTED_EDGE ( 'NONE', *, *, #145, .T. ) ;
#49 = CALENDAR_DATE ( 2021, 10, 11 ) ;
#50 = PLANE ( 'NONE',  #192 ) ;
#51 = APPLICATION_CONTEXT ( 'configuration controlled 3d designs of mechanical parts and assemblies' ) ;
#52 = FACE_BOUND ( 'NONE', #191, .T. ) ;
#53 = FACE_OUTER_BOUND ( 'NONE', #123, .T. ) ;
#54 = APPROVAL ( #154, 'UNSPECIFIED' ) ;
#55 = EDGE_LOOP ( 'NONE', ( #141 ) ) ;
#56 = DIRECTION ( 'NONE',  ( 4.275831445896958607E-31, 1.000000000000000000, 1.224646799147353207E-16 ) ) ;
#57 = DIRECTION ( 'NONE',  ( 3.491481338843133355E-15, -1.224646799147353207E-16, 1.000000000000000000 ) ) ;
#58 = DIRECTION ( 'NONE',  ( 1.000000000000000000, 0.0000000000000000000, -3.491481338843133355E-15 ) ) ;
#59 = DIRECTION ( 'NONE',  ( -3.491481338843133355E-15, 1.224646799147353207E-16, -1.000000000000000000 ) ) ;
#60 = CARTESIAN_POINT ( 'NONE',  ( 1.149999999999999911, 0.0000000000000000000, -4.015203539669603359E-15 ) ) ;
#61 = APPROVAL ( #44, 'UNSPECIFIED' ) ;
#62 = CALENDAR_DATE ( 2021, 10, 11 ) ;
#63 = COORDINATED_UNIVERSAL_TIME_OFFSET ( 1, 0, .AHEAD. ) ;
#64 = CARTESIAN_POINT ( 'NONE',  ( 8.030407079339203562E-15, 0.0000000000000000000, 2.299999999999998934 ) ) ;
#65 = PERSON_AND_ORGANIZATION ( #43, #89 ) ;
#66 = DIRECTION ( 'NONE',  ( 0.0000000000000000000, 1.000000000000000000, 0.0000000000000000000 ) ) ;
#67 = AXIS2_PLACEMENT_3D ( 'NONE', #111, #7, #212 ) ;
#68 = ADVANCED_FACE ( 'NONE', ( #81, #53 ), #124, .T. ) ;
#69 = DIRECTION ( 'NONE',  ( -4.275831445896958607E-31, -1.000000000000000000, -1.224646799147353207E-16 ) ) ;
#70 = AXIS2_PLACEMENT_3D ( 'NONE', #126, #147, #27 ) ;
#71 = ADVANCED_FACE ( 'NONE', ( #208, #39 ), #93, .F. ) ;
#72 = DIRECTION ( 'NONE',  ( 1.000000000000000000, 0.0000000000000000000, -3.491481338843133750E-15 ) ) ;
#73 = DIRECTION ( 'NONE',  ( -4.275831445896958607E-31, -1.000000000000000000, -1.224646799147353207E-16 ) ) ;
#74 = VERTEX_POINT ( 'NONE', #108 ) ;
#75 = CARTESIAN_POINT ( 'NONE',  ( 1.728283262727351074E-13, 2.999999999999995559, 49.50000000000000000 ) ) ;
#76 = SHAPE_DEFINITION_REPRESENTATION ( #210, #179 ) ;
#77 = APPROVAL_ROLE ( '' ) ;
#78 = DIRECTION ( 'NONE',  ( 4.275831445896958607E-31, 1.000000000000000000, 1.224646799147353207E-16 ) ) ;
#79 = COORDINATED_UNIVERSAL_TIME_OFFSET ( 1, 0, .AHEAD. ) ;
#80 = APPROVAL_PERSON_ORGANIZATION ( #29, #61, #45 ) ;
#81 = FACE_OUTER_BOUND ( 'NONE', #125, .T. ) ;
#82 = PERSON_AND_ORGANIZATION ( #43, #89 ) ;
#83 = DIRECTION ( 'NONE',  ( -4.275831445896958607E-31, -1.000000000000000000, -1.224646799147353207E-16 ) ) ;
#84 = APPROVAL_PERSON_ORGANIZATION ( #112, #54, #199 ) ;
#85 = EDGE_CURVE ( 'NONE', #194, #194, #24, .T. ) ;
#86 = DIRECTION ( 'NONE',  ( -3.491481338843133355E-15, 1.224646799147353207E-16, -1.000000000000000000 ) ) ;
#87 = PLANE ( 'NONE',  #98 ) ;
#88 = CC_DESIGN_APPROVAL ( #213, ( #218 ) ) ;
#89 = ORGANIZATION ( 'UNSPECIFIED', 'UNSPECIFIED', '' ) ;
#90 = PERSON_AND_ORGANIZATION ( #43, #89 ) ;
#91 = DIRECTION ( 'NONE',  ( -3.491481338843133355E-15, 1.224646799147353207E-16, -1.000000000000000000 ) ) ;
#92 = CARTESIAN_POINT ( 'NONE',  ( 8.030407079339206717E-15, -3.324886662288886509E-16, 2.299999999999999822 ) ) ;
#93 = TOROIDAL_SURFACE ( 'NONE', #122, 9.150000000000002132, 8.000000000000000000 ) ;
#94 = DIRECTION ( 'NONE',  ( 1.000000000000000000, 0.0000000000000000000, 0.0000000000000000000 ) ) ;
#95 = CYLINDRICAL_SURFACE ( 'NONE', #99, 2.999999999999999112 ) ;
#96 = PRODUCT_RELATED_PRODUCT_CATEGORY ( 'detail', '', ( #23 ) ) ;
#97 = DATE_TIME_ROLE ( 'classification_date' ) ;
#98 = AXIS2_PLACEMENT_3D ( 'NONE', #16, #31, #83 ) ;
#99 = AXIS2_PLACEMENT_3D ( 'NONE', #198, #59, #56 ) ;
#100 = APPROVAL_DATE_TIME ( #171, #54 ) ;
#101 = CC_DESIGN_DATE_AND_TIME_ASSIGNMENT ( #114, #47, ( #104 ) ) ;
#102 = PLANE ( 'NONE',  #173 ) ;
#103 = ORIENTED_EDGE ( 'NONE', *, *, #165, .T. ) ;
#104 = PRODUCT_DEFINITION ( 'UNKNOWN', '', #218, #131 ) ;
#105 = LOCAL_TIME ( 7, 36, 43.00000000000000000, #152 ) ;
#106 = EDGE_LOOP ( 'NONE', ( #120 ) ) ;
#107 = CARTESIAN_POINT ( 'NONE',  ( 1.745740669421566678E-13, -6.123233995736766085E-15, 50.00000000000000000 ) ) ;
#108 = CARTESIAN_POINT ( 'NONE',  ( 1.150000000000007905, 0.0000000000000000000, 2.299999999999994493 ) ) ;
#109 =( NAMED_UNIT ( * ) PLANE_ANGLE_UNIT ( ) SI_UNIT ( $, .RADIAN. ) );
#110 = VERTEX_POINT ( 'NONE', #128 ) ;
#111 = CARTESIAN_POINT ( 'NONE',  ( 8.030407079339200406E-15, 0.0000000000000000000, 2.299999999999998046 ) ) ;
#112 = PERSON_AND_ORGANIZATION ( #43, #89 ) ;
#113 = UNCERTAINTY_MEASURE_WITH_UNIT (LENGTH_MEASURE( 1.000000000000000082E-05 ), #4, 'distance_accuracy_value', 'NONE');
#114 = DATE_AND_TIME ( #62, #2 ) ;
#115 = AXIS2_PLACEMENT_3D ( 'NONE', #20, #160, #72 ) ;
#116 = CALENDAR_DATE ( 2021, 10, 11 ) ;
#117 = DATE_AND_TIME ( #116, #148 ) ;
#118 = DIRECTION ( 'NONE',  ( -3.491481338843133355E-15, 0.0000000000000000000, -1.000000000000000000 ) ) ;
#119 = CALENDAR_DATE ( 2021, 10, 11 ) ;
#120 = ORIENTED_EDGE ( 'NONE', *, *, #5, .F. ) ;
#121 = CC_DESIGN_PERSON_AND_ORGANIZATION_ASSIGNMENT ( #90, #130, ( #23 ) ) ;
#122 = AXIS2_PLACEMENT_3D ( 'NONE', #64, #146, #58 ) ;
#123 = EDGE_LOOP ( 'NONE', ( #202 ) ) ;
#124 = CYLINDRICAL_SURFACE ( 'NONE', #115, 1.149999999999999911 ) ;
#125 = EDGE_LOOP ( 'NONE', ( #12 ) ) ;
#126 = CARTESIAN_POINT ( 'NONE',  ( 1.728283262727351074E-13, -6.062001655779398511E-15, 49.50000000000000000 ) ) ;
#127 = AXIS2_PLACEMENT_3D ( 'NONE', #155, #22, #26 ) ;
#128 = CARTESIAN_POINT ( 'NONE',  ( -2.999999999999973355, 0.0000000000000000000, 7.416395215383587036 ) ) ;
#129 = FACE_OUTER_BOUND ( 'NONE', #106, .T. ) ;
#130 = PERSON_AND_ORGANIZATION_ROLE ( 'design_owner' ) ;
#131 = DESIGN_CONTEXT ( 'detailed design', #51, 'design' ) ;
#132 = VERTEX_POINT ( 'NONE', #75 ) ;
#133 = PERSON_AND_ORGANIZATION_ROLE ( 'classification_officer' ) ;
#134 = DATE_AND_TIME ( #119, #223 ) ;
#135 = APPROVAL_DATE_TIME ( #134, #61 ) ;
#136 = FACE_OUTER_BOUND ( 'NONE', #169, .T. ) ;
#137 = PERSON_AND_ORGANIZATION ( #43, #89 ) ;
#138 = ORIENTED_EDGE ( 'NONE', *, *, #25, .T. ) ;
#139 = CC_DESIGN_PERSON_AND_ORGANIZATION_ASSIGNMENT ( #65, #166, ( #218 ) ) ;
#140 = COORDINATED_UNIVERSAL_TIME_OFFSET ( 1, 0, .AHEAD. ) ;
#141 = ORIENTED_EDGE ( 'NONE', *, *, #167, .F. ) ;
#142 = CC_DESIGN_PERSON_AND_ORGANIZATION_ASSIGNMENT ( #82, #216, ( #104 ) ) ;
#143 = FACE_OUTER_BOUND ( 'NONE', #222, .T. ) ;
#144 = EDGE_LOOP ( 'NONE', ( #220 ) ) ;
#145 = EDGE_CURVE ( 'NONE', #40, #40, #170, .T. ) ;
#146 = DIRECTION ( 'NONE',  ( 3.491481338843133355E-15, -0.0000000000000000000, 1.000000000000000000 ) ) ;
#147 = DIRECTION ( 'NONE',  ( -3.491481338843133355E-15, 1.224646799147353207E-16, -1.000000000000000000 ) ) ;
#148 = LOCAL_TIME ( 7, 36, 43.00000000000000000, #63 ) ;
#149 = CARTESIAN_POINT ( 'NONE',  ( 0.0000000000000000000, 0.0000000000000000000, 0.0000000000000000000 ) ) ;
#150 = DIRECTION ( 'NONE',  ( 0.0000000000000000000, 1.000000000000000000, 0.0000000000000000000 ) ) ;
#151 = CLOSED_SHELL ( 'NONE', ( #206, #8, #46, #71, #186 ) ) ;
#152 = COORDINATED_UNIVERSAL_TIME_OFFSET ( 1, 0, .AHEAD. ) ;
#153 = CC_DESIGN_DATE_AND_TIME_ASSIGNMENT ( #11, #97, ( #205 ) ) ;
#154 = APPROVAL_STATUS ( 'not_yet_approved' ) ;
#155 = CARTESIAN_POINT ( 'NONE',  ( 0.0000000000000000000, 0.0000000000000000000, 0.0000000000000000000 ) ) ;
#156 = ORIENTED_EDGE ( 'NONE', *, *, #167, .T. ) ;
#157 = EDGE_LOOP ( 'NONE', ( #138 ) ) ;
#158 = AXIS2_PLACEMENT_3D ( 'NONE', #178, #91, #150 ) ;
#159 = DIRECTION ( 'NONE',  ( 1.000000000000000000, 0.0000000000000000000, -3.394024192128535962E-15 ) ) ;
#160 = DIRECTION ( 'NONE',  ( 3.491481338843133355E-15, -0.0000000000000000000, 1.000000000000000000 ) ) ;
#161 =( NAMED_UNIT ( * ) SI_UNIT ( $, .STERADIAN. ) SOLID_ANGLE_UNIT ( ) );
#162 = VERTEX_POINT ( 'NONE', #181 ) ;
#163 = APPLICATION_CONTEXT ( 'configuration controlled 3d designs of mechanical parts and assemblies' ) ;
#164 = CIRCLE ( 'NONE', #41, 1.149999999999999911 ) ;
#165 = EDGE_CURVE ( 'NONE', #132, #132, #17, .T. ) ;
#166 = PERSON_AND_ORGANIZATION_ROLE ( 'design_supplier' ) ;
#167 = EDGE_CURVE ( 'NONE', #74, #74, #196, .T. ) ;
#168 = APPROVAL_STATUS ( 'not_yet_approved' ) ;
#169 = EDGE_LOOP ( 'NONE', ( #219 ) ) ;
#170 = CIRCLE ( 'NONE', #158, 2.500000000000001776 ) ;
#171 = DATE_AND_TIME ( #49, #105 ) ;
#172 = DIRECTION ( 'NONE',  ( 3.491481338843133355E-15, -0.0000000000000000000, 1.000000000000000000 ) ) ;
#173 = AXIS2_PLACEMENT_3D ( 'NONE', #176, #207, #78 ) ;
#174 = AXIS2_PLACEMENT_3D ( 'NONE', #149, #180, #94 ) ;
#175 = CARTESIAN_POINT ( 'NONE',  ( 2.589420549599725743E-14, 0.0000000000000000000, 7.416395215383576378 ) ) ;
#176 = CARTESIAN_POINT ( 'NONE',  ( 1.745740669421566678E-13, 1.874699728327314346E-32, 50.00000000000000000 ) ) ;
#177 = CC_DESIGN_PERSON_AND_ORGANIZATION_ASSIGNMENT ( #217, #133, ( #205 ) ) ;
#178 = CARTESIAN_POINT ( 'NONE',  ( 1.745740669421566678E-13, -6.123233995736766085E-15, 50.00000000000000000 ) ) ;
#179 = ADVANCED_BREP_SHAPE_REPRESENTATION ( '63825', ( #190, #38, #174 ), #14 ) ;
#180 = DIRECTION ( 'NONE',  ( 0.0000000000000000000, 0.0000000000000000000, 1.000000000000000000 ) ) ;
#181 = CARTESIAN_POINT ( 'NONE',  ( 1.150000000000007905, 0.0000000000000000000, 2.299999999999994493 ) ) ;
#182 = CALENDAR_DATE ( 2021, 10, 11 ) ;
#183 = COORDINATED_UNIVERSAL_TIME_OFFSET ( 1, 0, .AHEAD. ) ;
#184 = FACE_OUTER_BOUND ( 'NONE', #157, .T. ) ;
#185 = EDGE_LOOP ( 'NONE', ( #156 ) ) ;
#186 = ADVANCED_FACE ( 'NONE', ( #209 ), #6, .F. ) ;
#187 = CONICAL_SURFACE ( 'NONE', #211, 2.500000000000001776, 0.7853981633974479459 ) ;
#188 = CC_DESIGN_APPROVAL ( #54, ( #104 ) ) ;
#189 = ORIENTED_EDGE ( 'NONE', *, *, #5, .T. ) ;
#190 = MANIFOLD_SOLID_BREP ( 'Corps-Déplacer/Copier1[1]', #151 ) ;
#191 = EDGE_LOOP ( 'NONE', ( #48 ) ) ;
#192 = AXIS2_PLACEMENT_3D ( 'NONE', #34, #1, #69 ) ;
#193 = APPROVAL_PERSON_ORGANIZATION ( #137, #213, #77 ) ;
#194 = VERTEX_POINT ( 'NONE', #60 ) ;
#195 = CARTESIAN_POINT ( 'NONE',  ( 1.745740669421566678E-13, 2.499999999999995559, 50.00000000000000000 ) ) ;
#196 = CIRCLE ( 'NONE', #67, 1.149999999999999911 ) ;
#197 = CC_DESIGN_PERSON_AND_ORGANIZATION_ASSIGNMENT ( #221, #13, ( #218 ) ) ;
#198 = CARTESIAN_POINT ( 'NONE',  ( 0.0000000000000000000, 0.0000000000000000000, 0.0000000000000000000 ) ) ;
#199 = APPROVAL_ROLE ( '' ) ;
#200 = AXIS2_PLACEMENT_3D ( 'NONE', #92, #57, #73 ) ;
#201 = APPROVAL_DATE_TIME ( #117, #213 ) ;
#202 = ORIENTED_EDGE ( 'NONE', *, *, #25, .F. ) ;
#203 = AXIS2_PLACEMENT_3D ( 'NONE', #175, #118, #37 ) ;
#204 = ORIENTED_EDGE ( 'NONE', *, *, #145, .F. ) ;
#205 = SECURITY_CLASSIFICATION ( '', '', #30 ) ;
#206 = ADVANCED_FACE ( 'NONE', ( #215, #129 ), #95, .T. ) ;
#207 = DIRECTION ( 'NONE',  ( -3.491481338843133355E-15, 1.224646799147353207E-16, -1.000000000000000000 ) ) ;
#208 = FACE_OUTER_BOUND ( 'NONE', #185, .T. ) ;
#209 = FACE_OUTER_BOUND ( 'NONE', #55, .T. ) ;
#210 = PRODUCT_DEFINITION_SHAPE ( 'NONE', 'NONE',  #104 ) ;
#211 = AXIS2_PLACEMENT_3D ( 'NONE', #107, #86, #66 ) ;
#212 = DIRECTION ( 'NONE',  ( 1.000000000000000000, 0.0000000000000000000, -3.394024192128535962E-15 ) ) ;
#213 = APPROVAL ( #168, 'UNSPECIFIED' ) ;
#214 = CIRCLE ( 'NONE', #203, 2.999999999999999112 ) ;
#215 = FACE_OUTER_BOUND ( 'NONE', #19, .T. ) ;
#216 = PERSON_AND_ORGANIZATION_ROLE ( 'creator' ) ;
#217 = PERSON_AND_ORGANIZATION ( #43, #89 ) ;
#218 = PRODUCT_DEFINITION_FORMATION_WITH_SPECIFIED_SOURCE ( 'ANY', '', #23, .NOT_KNOWN. ) ;
#219 = ORIENTED_EDGE ( 'NONE', *, *, #165, .F. ) ;
#220 = ORIENTED_EDGE ( 'NONE', *, *, #85, .F. ) ;
#221 = PERSON_AND_ORGANIZATION ( #43, #89 ) ;
#222 = EDGE_LOOP ( 'NONE', ( #204 ) ) ;
#223 = LOCAL_TIME ( 7, 36, 43.00000000000000000, #183 ) ;
ENDSEC;
END-ISO-10303-21;
