ISO-10303-21;
HEADER;
FILE_DESCRIPTION (( 'STEP AP203' ),
    '1' );
FILE_NAME ('63824.step',
    '2021-11-10T06:36:42',
    ( '' ),
    ( '' ),
    'SwSTEP 2.0',
    'SolidWorks 2019',
    '' );
FILE_SCHEMA (( 'CONFIG_CONTROL_DESIGN' ));
ENDSEC;

DATA;
#1 = ORIENTED_EDGE ( 'NONE', *, *, #116, .T. ) ;
#2 = CARTESIAN_POINT ( 'NONE',  ( 7.681258945454887071E-15, 0.0000000000000000000, 2.199999999999997957 ) ) ;
#3 = EDGE_LOOP ( 'NONE', ( #114 ) ) ;
#4 = EDGE_LOOP ( 'NONE', ( #81 ) ) ;
#5 = AXIS2_PLACEMENT_3D ( 'NONE', #178, #40, #106 ) ;
#6 = CC_DESIGN_PERSON_AND_ORGANIZATION_ASSIGNMENT ( #96, #43, ( #187 ) ) ;
#7 = VERTEX_POINT ( 'NONE', #58 ) ;
#8 = DIRECTION ( 'NONE',  ( 3.491481338843133355E-15, -0.0000000000000000000, 1.000000000000000000 ) ) ;
#9 = DIRECTION ( 'NONE',  ( 3.491481338843133355E-15, -0.0000000000000000000, 1.000000000000000000 ) ) ;
#10 = ADVANCED_FACE ( 'NONE', ( #63 ), #104, .F. ) ;
#11 = DATE_TIME_ROLE ( 'classification_date' ) ;
#12 = AXIS2_PLACEMENT_3D ( 'NONE', #97, #169, #173 ) ;
#13 = PRODUCT_DEFINITION_FORMATION_WITH_SPECIFIED_SOURCE ( 'ANY', '', #204, .NOT_KNOWN. ) ;
#14 = COORDINATED_UNIVERSAL_TIME_OFFSET ( 1, 0, .AHEAD. ) ;
#15 = ADVANCED_FACE ( 'NONE', ( #117 ), #174, .F. ) ;
#16 = PLANE ( 'NONE',  #107 ) ;
#17 = DATE_AND_TIME ( #72, #222 ) ;
#18 = CONICAL_SURFACE ( 'NONE', #76, 2.500000000000001776, 0.7853981633974479459 ) ;
#19 = CYLINDRICAL_SURFACE ( 'NONE', #61, 2.999999999999999112 ) ;
#20 = CARTESIAN_POINT ( 'NONE',  ( 2.575283717091523594E-14, 0.0000000000000000000, 7.375905717843010301 ) ) ;
#21 = FACE_OUTER_BOUND ( 'NONE', #3, .T. ) ;
#22 = FACE_OUTER_BOUND ( 'NONE', #131, .T. ) ;
#23 = APPLICATION_PROTOCOL_DEFINITION ( 'international standard', 'config_control_design', 1994, #201 ) ;
#24 = APPROVAL_STATUS ( 'not_yet_approved' ) ;
#25 =( NAMED_UNIT ( * ) PLANE_ANGLE_UNIT ( ) SI_UNIT ( $, .RADIAN. ) );
#26 = COORDINATED_UNIVERSAL_TIME_OFFSET ( 1, 0, .AHEAD. ) ;
#27 = CIRCLE ( 'NONE', #186, 2.999999999999999112 ) ;
#28 = AXIS2_PLACEMENT_3D ( 'NONE', #39, #89, #109 ) ;
#29 = PERSON_AND_ORGANIZATION ( #147, #205 ) ;
#30 = FACE_OUTER_BOUND ( 'NONE', #52, .T. ) ;
#31 = DIRECTION ( 'NONE',  ( -4.275831445896958607E-31, -1.000000000000000000, -1.224646799147353207E-16 ) ) ;
#32 = COORDINATED_UNIVERSAL_TIME_OFFSET ( 1, 0, .AHEAD. ) ;
#33 = CARTESIAN_POINT ( 'NONE',  ( 0.0000000000000000000, 0.0000000000000000000, 0.0000000000000000000 ) ) ;
#34 = APPROVAL ( #165, 'UNSPECIFIED' ) ;
#35 = ORIENTED_EDGE ( 'NONE', *, *, #156, .T. ) ;
#36 = EDGE_LOOP ( 'NONE', ( #148 ) ) ;
#37 = APPROVAL_PERSON_ORGANIZATION ( #128, #207, #42 ) ;
#38 = DIRECTION ( 'NONE',  ( 3.491481338843133355E-15, -1.224646799147353207E-16, 1.000000000000000000 ) ) ;
#39 = CARTESIAN_POINT ( 'NONE',  ( 1.745740669421566678E-13, -6.123233995736766085E-15, 50.00000000000000000 ) ) ;
#40 = DIRECTION ( 'NONE',  ( -3.491481338843133355E-15, 1.224646799147353207E-16, -1.000000000000000000 ) ) ;
#41 = ADVANCED_FACE ( 'NONE', ( #22, #188 ), #18, .T. ) ;
#42 = APPROVAL_ROLE ( '' ) ;
#43 = PERSON_AND_ORGANIZATION_ROLE ( 'classification_officer' ) ;
#44 = EDGE_CURVE ( 'NONE', #141, #141, #213, .T. ) ;
#45 = DIRECTION ( 'NONE',  ( 1.000000000000000000, 0.0000000000000000000, -3.548298019043467945E-15 ) ) ;
#46 = CARTESIAN_POINT ( 'NONE',  ( -3.206816838010677856E-31, 1.124799933034399755E-32, -9.184688465421452921E-17 ) ) ;
#47 = ADVANCED_BREP_SHAPE_REPRESENTATION ( '63824', ( #176, #98, #149 ), #162 ) ;
#48 = EDGE_LOOP ( 'NONE', ( #67 ) ) ;
#49 = CC_DESIGN_DATE_AND_TIME_ASSIGNMENT ( #144, #219, ( #159 ) ) ;
#50 = LOCAL_TIME ( 7, 36, 42.00000000000000000, #168 ) ;
#51 = CARTESIAN_POINT ( 'NONE',  ( 7.681258945454893382E-15, -3.180326372624151928E-16, 2.199999999999999734 ) ) ;
#52 = EDGE_LOOP ( 'NONE', ( #194 ) ) ;
#53 = DIRECTION ( 'NONE',  ( 0.0000000000000000000, 0.0000000000000000000, 1.000000000000000000 ) ) ;
#54 = CARTESIAN_POINT ( 'NONE',  ( 1.728283262727351074E-13, 2.999999999999995559, 49.50000000000000000 ) ) ;
#55 = LOCAL_TIME ( 7, 36, 42.00000000000000000, #26 ) ;
#56 = ADVANCED_FACE ( 'NONE', ( #209, #30 ), #152, .T. ) ;
#57 = CARTESIAN_POINT ( 'NONE',  ( 7.681258945454887071E-15, 0.0000000000000000000, 2.199999999999997957 ) ) ;
#58 = CARTESIAN_POINT ( 'NONE',  ( 1.745740669421566678E-13, 2.499999999999995559, 50.00000000000000000 ) ) ;
#59 = APPROVAL_ROLE ( '' ) ;
#60 = APPROVAL_DATE_TIME ( #74, #34 ) ;
#61 = AXIS2_PLACEMENT_3D ( 'NONE', #33, #211, #150 ) ;
#62 = CC_DESIGN_APPROVAL ( #207, ( #187 ) ) ;
#63 = FACE_OUTER_BOUND ( 'NONE', #138, .T. ) ;
#64 = DIRECTION ( 'NONE',  ( -3.491481338843133355E-15, 0.0000000000000000000, -1.000000000000000000 ) ) ;
#65 = CARTESIAN_POINT ( 'NONE',  ( 1.745740669421566678E-13, 1.874699728327314346E-32, 50.00000000000000000 ) ) ;
#66 = AXIS2_PLACEMENT_3D ( 'NONE', #46, #190, #102 ) ;
#67 = ORIENTED_EDGE ( 'NONE', *, *, #172, .T. ) ;
#68 = CLOSED_SHELL ( 'NONE', ( #120, #56, #15 ) ) ;
#69 = CARTESIAN_POINT ( 'NONE',  ( 1.100000000000007860, 0.0000000000000000000, 2.199999999999993960 ) ) ;
#70 = CARTESIAN_POINT ( 'NONE',  ( 7.681258945454893382E-15, -3.180326372624151928E-16, 2.199999999999999734 ) ) ;
#71 = FACE_OUTER_BOUND ( 'NONE', #101, .T. ) ;
#72 = CALENDAR_DATE ( 2021, 10, 11 ) ;
#73 = AXIS2_PLACEMENT_3D ( 'NONE', #2, #83, #45 ) ;
#74 = DATE_AND_TIME ( #143, #183 ) ;
#75 = ADVANCED_FACE ( 'NONE', ( #21 ), #16, .F. ) ;
#76 = AXIS2_PLACEMENT_3D ( 'NONE', #192, #133, #212 ) ;
#77 = ADVANCED_FACE ( 'NONE', ( #99, #171 ), #19, .T. ) ;
#78 = DIRECTION ( 'NONE',  ( 4.275831445896958607E-31, 1.000000000000000000, 1.224646799147353207E-16 ) ) ;
#79 = CIRCLE ( 'NONE', #5, 3.000000000000001776 ) ;
#80 = ORIENTED_EDGE ( 'NONE', *, *, #223, .T. ) ;
#81 = ORIENTED_EDGE ( 'NONE', *, *, #44, .T. ) ;
#82 = EDGE_LOOP ( 'NONE', ( #1 ) ) ;
#83 = DIRECTION ( 'NONE',  ( 3.491481338843133355E-15, -0.0000000000000000000, 1.000000000000000000 ) ) ;
#84 = DIRECTION ( 'NONE',  ( 1.000000000000000000, 0.0000000000000000000, -3.548298019043467945E-15 ) ) ;
#85 = UNCERTAINTY_MEASURE_WITH_UNIT (LENGTH_MEASURE( 1.000000000000000082E-05 ), #108, 'distance_accuracy_value', 'NONE');
#86 = FACE_OUTER_BOUND ( 'NONE', #4, .T. ) ;
#87 = FACE_OUTER_BOUND ( 'NONE', #82, .T. ) ;
#88 = CC_DESIGN_PERSON_AND_ORGANIZATION_ASSIGNMENT ( #175, #155, ( #204 ) ) ;
#89 = DIRECTION ( 'NONE',  ( -3.491481338843133355E-15, 1.224646799147353207E-16, -1.000000000000000000 ) ) ;
#90 = APPLICATION_PROTOCOL_DEFINITION ( 'international standard', 'config_control_design', 1994, #119 ) ;
#91 = DATE_AND_TIME ( #160, #55 ) ;
#92 = AXIS2_PLACEMENT_3D ( 'NONE', #218, #9, #123 ) ;
#93 = LOCAL_TIME ( 7, 36, 42.00000000000000000, #94 ) ;
#94 = COORDINATED_UNIVERSAL_TIME_OFFSET ( 1, 0, .AHEAD. ) ;
#95 = CC_DESIGN_PERSON_AND_ORGANIZATION_ASSIGNMENT ( #189, #203, ( #13 ) ) ;
#96 = PERSON_AND_ORGANIZATION ( #147, #205 ) ;
#97 = CARTESIAN_POINT ( 'NONE',  ( 0.0000000000000000000, 0.0000000000000000000, 0.0000000000000000000 ) ) ;
#98 = MANIFOLD_SOLID_BREP ( 'Corps-Déplacer/Copier1[2]', #68 ) ;
#99 = FACE_OUTER_BOUND ( 'NONE', #214, .T. ) ;
#100 = AXIS2_PLACEMENT_3D ( 'NONE', #70, #38, #202 ) ;
#101 = EDGE_LOOP ( 'NONE', ( #80 ) ) ;
#102 = DIRECTION ( 'NONE',  ( -4.275831445896958607E-31, -1.000000000000000000, -1.224646799147353207E-16 ) ) ;
#103 = DESIGN_CONTEXT ( 'detailed design', #201, 'design' ) ;
#104 = PLANE ( 'NONE',  #221 ) ;
#105 = CIRCLE ( 'NONE', #153, 1.100000000000000311 ) ;
#106 = DIRECTION ( 'NONE',  ( 0.0000000000000000000, 1.000000000000000000, 0.0000000000000000000 ) ) ;
#107 = AXIS2_PLACEMENT_3D ( 'NONE', #51, #115, #31 ) ;
#108 =( LENGTH_UNIT ( ) NAMED_UNIT ( * ) SI_UNIT ( .MILLI., .METRE. ) );
#109 = DIRECTION ( 'NONE',  ( 0.0000000000000000000, 1.000000000000000000, 0.0000000000000000000 ) ) ;
#110 = CALENDAR_DATE ( 2021, 10, 11 ) ;
#111 = CC_DESIGN_PERSON_AND_ORGANIZATION_ASSIGNMENT ( #134, #206, ( #159 ) ) ;
#112 = CIRCLE ( 'NONE', #92, 1.100000000000000089 ) ;
#113 = SHAPE_DEFINITION_REPRESENTATION ( #145, #47 ) ;
#114 = ORIENTED_EDGE ( 'NONE', *, *, #223, .F. ) ;
#115 = DIRECTION ( 'NONE',  ( 3.491481338843133355E-15, -1.224646799147353207E-16, 1.000000000000000000 ) ) ;
#116 = EDGE_CURVE ( 'NONE', #198, #198, #27, .T. ) ;
#117 = FACE_OUTER_BOUND ( 'NONE', #36, .T. ) ;
#118 = ORIENTED_EDGE ( 'NONE', *, *, #156, .F. ) ;
#119 = APPLICATION_CONTEXT ( 'configuration controlled 3d designs of mechanical parts and assemblies' ) ;
#120 = ADVANCED_FACE ( 'NONE', ( #86 ), #216, .T. ) ;
#121 = ORIENTED_EDGE ( 'NONE', *, *, #172, .F. ) ;
#122 = DIRECTION ( 'NONE',  ( 1.000000000000000000, 0.0000000000000000000, 0.0000000000000000000 ) ) ;
#123 = DIRECTION ( 'NONE',  ( 1.000000000000000000, 0.0000000000000000000, -3.491481338843133750E-15 ) ) ;
#124 = CARTESIAN_POINT ( 'NONE',  ( 7.681258945454890226E-15, 0.0000000000000000000, 2.199999999999998845 ) ) ;
#125 = CARTESIAN_POINT ( 'NONE',  ( 0.0000000000000000000, 0.0000000000000000000, 0.0000000000000000000 ) ) ;
#126 = PERSON_AND_ORGANIZATION ( #147, #205 ) ;
#127 = CC_DESIGN_DATE_AND_TIME_ASSIGNMENT ( #91, #11, ( #187 ) ) ;
#128 = PERSON_AND_ORGANIZATION ( #147, #205 ) ;
#129 = APPROVAL_PERSON_ORGANIZATION ( #215, #199, #59 ) ;
#130 = ADVANCED_FACE ( 'NONE', ( #71, #87 ), #137, .F. ) ;
#131 = EDGE_LOOP ( 'NONE', ( #118 ) ) ;
#132 = CALENDAR_DATE ( 2021, 10, 11 ) ;
#133 = DIRECTION ( 'NONE',  ( -3.491481338843133355E-15, 1.224646799147353207E-16, -1.000000000000000000 ) ) ;
#134 = PERSON_AND_ORGANIZATION ( #147, #205 ) ;
#135 = DIRECTION ( 'NONE',  ( -1.000000000000000000, 0.0000000000000000000, 3.469446951953615372E-15 ) ) ;
#136 = DIRECTION ( 'NONE',  ( -3.491481338843133355E-15, 1.224646799147353207E-16, -1.000000000000000000 ) ) ;
#137 = TOROIDAL_SURFACE ( 'NONE', #193, 9.099999999999999645, 8.000000000000000000 ) ;
#138 = EDGE_LOOP ( 'NONE', ( #121 ) ) ;
#139 =( NAMED_UNIT ( * ) SI_UNIT ( $, .STERADIAN. ) SOLID_ANGLE_UNIT ( ) );
#140 = EDGE_CURVE ( 'NONE', #200, #200, #112, .T. ) ;
#141 = VERTEX_POINT ( 'NONE', #69 ) ;
#142 = CARTESIAN_POINT ( 'NONE',  ( -2.999999999999973799, 0.0000000000000000000, 7.375905717843020959 ) ) ;
#143 = CALENDAR_DATE ( 2021, 10, 11 ) ;
#144 = DATE_AND_TIME ( #132, #93 ) ;
#145 = PRODUCT_DEFINITION_SHAPE ( 'NONE', 'NONE',  #159 ) ;
#146 = APPROVAL_DATE_TIME ( #170, #207 ) ;
#147 = PERSON ( 'UNSPECIFIED', 'UNSPECIFIED', 'UNSPECIFIED', ('UNSPECIFIED'), ('UNSPECIFIED'), ('UNSPECIFIED') ) ;
#148 = ORIENTED_EDGE ( 'NONE', *, *, #140, .F. ) ;
#149 = AXIS2_PLACEMENT_3D ( 'NONE', #125, #53, #122 ) ;
#150 = DIRECTION ( 'NONE',  ( 4.275831445896958607E-31, 1.000000000000000000, 1.224646799147353207E-16 ) ) ;
#151 = EDGE_LOOP ( 'NONE', ( #208 ) ) ;
#152 = CYLINDRICAL_SURFACE ( 'NONE', #12, 1.100000000000000311 ) ;
#153 = AXIS2_PLACEMENT_3D ( 'NONE', #57, #8, #84 ) ;
#154 = ORIENTED_EDGE ( 'NONE', *, *, #140, .T. ) ;
#155 = PERSON_AND_ORGANIZATION_ROLE ( 'design_owner' ) ;
#156 = EDGE_CURVE ( 'NONE', #197, #197, #79, .T. ) ;
#157 = DIRECTION ( 'NONE',  ( 1.000000000000000000, 0.0000000000000000000, -3.491481338843132961E-15 ) ) ;
#158 = DIRECTION ( 'NONE',  ( 3.491481338843133355E-15, -0.0000000000000000000, 1.000000000000000000 ) ) ;
#159 = PRODUCT_DEFINITION ( 'UNKNOWN', '', #13, #103 ) ;
#160 = CALENDAR_DATE ( 2021, 10, 11 ) ;
#161 = PRODUCT_RELATED_PRODUCT_CATEGORY ( 'detail', '', ( #204 ) ) ;
#162 =( GEOMETRIC_REPRESENTATION_CONTEXT ( 3 ) GLOBAL_UNCERTAINTY_ASSIGNED_CONTEXT ( ( #85 ) ) GLOBAL_UNIT_ASSIGNED_CONTEXT ( ( #108, #25, #139 ) ) REPRESENTATION_CONTEXT ( 'NONE', 'WORKASPACE' ) );
#163 = SECURITY_CLASSIFICATION_LEVEL ( 'unclassified' ) ;
#164 = CC_DESIGN_APPROVAL ( #199, ( #159 ) ) ;
#165 = APPROVAL_STATUS ( 'not_yet_approved' ) ;
#166 = CIRCLE ( 'NONE', #28, 2.500000000000001776 ) ;
#167 = CC_DESIGN_APPROVAL ( #34, ( #13 ) ) ;
#168 = COORDINATED_UNIVERSAL_TIME_OFFSET ( 1, 0, .AHEAD. ) ;
#169 = DIRECTION ( 'NONE',  ( 3.491481338843133355E-15, -0.0000000000000000000, 1.000000000000000000 ) ) ;
#170 = DATE_AND_TIME ( #110, #50 ) ;
#171 = FACE_OUTER_BOUND ( 'NONE', #151, .T. ) ;
#172 = EDGE_CURVE ( 'NONE', #7, #7, #166, .T. ) ;
#173 = DIRECTION ( 'NONE',  ( 1.000000000000000000, 0.0000000000000000000, -3.491481338843133750E-15 ) ) ;
#174 = PLANE ( 'NONE',  #66 ) ;
#175 = PERSON_AND_ORGANIZATION ( #147, #205 ) ;
#176 = MANIFOLD_SOLID_BREP ( 'Corps-Déplacer/Copier1[1]', #179 ) ;
#177 = VERTEX_POINT ( 'NONE', #182 ) ;
#178 = CARTESIAN_POINT ( 'NONE',  ( 1.728283262727351074E-13, -6.062001655779398511E-15, 49.50000000000000000 ) ) ;
#179 = CLOSED_SHELL ( 'NONE', ( #77, #41, #10, #130, #75 ) ) ;
#180 = APPROVAL_PERSON_ORGANIZATION ( #29, #34, #184 ) ;
#181 = CC_DESIGN_PERSON_AND_ORGANIZATION_ASSIGNMENT ( #126, #220, ( #13 ) ) ;
#182 = CARTESIAN_POINT ( 'NONE',  ( 1.100000000000007860, 0.0000000000000000000, 2.199999999999993960 ) ) ;
#183 = LOCAL_TIME ( 7, 36, 42.00000000000000000, #32 ) ;
#184 = APPROVAL_ROLE ( '' ) ;
#185 = CC_DESIGN_SECURITY_CLASSIFICATION ( #187, ( #13 ) ) ;
#186 = AXIS2_PLACEMENT_3D ( 'NONE', #20, #64, #135 ) ;
#187 = SECURITY_CLASSIFICATION ( '', '', #163 ) ;
#188 = FACE_BOUND ( 'NONE', #48, .T. ) ;
#189 = PERSON_AND_ORGANIZATION ( #147, #205 ) ;
#190 = DIRECTION ( 'NONE',  ( 3.491481338843133355E-15, -1.224646799147353207E-16, 1.000000000000000000 ) ) ;
#191 = APPROVAL_DATE_TIME ( #17, #199 ) ;
#192 = CARTESIAN_POINT ( 'NONE',  ( 1.745740669421566678E-13, -6.123233995736766085E-15, 50.00000000000000000 ) ) ;
#193 = AXIS2_PLACEMENT_3D ( 'NONE', #124, #158, #157 ) ;
#194 = ORIENTED_EDGE ( 'NONE', *, *, #44, .F. ) ;
#195 = EDGE_LOOP ( 'NONE', ( #154 ) ) ;
#196 = MECHANICAL_CONTEXT ( 'NONE', #119, 'mechanical' ) ;
#197 = VERTEX_POINT ( 'NONE', #54 ) ;
#198 = VERTEX_POINT ( 'NONE', #142 ) ;
#199 = APPROVAL ( #24, 'UNSPECIFIED' ) ;
#200 = VERTEX_POINT ( 'NONE', #217 ) ;
#201 = APPLICATION_CONTEXT ( 'configuration controlled 3d designs of mechanical parts and assemblies' ) ;
#202 = DIRECTION ( 'NONE',  ( -4.275831445896958607E-31, -1.000000000000000000, -1.224646799147353207E-16 ) ) ;
#203 = PERSON_AND_ORGANIZATION_ROLE ( 'design_supplier' ) ;
#204 = PRODUCT ( '63824', '63824', '', ( #196 ) ) ;
#205 = ORGANIZATION ( 'UNSPECIFIED', 'UNSPECIFIED', '' ) ;
#206 = PERSON_AND_ORGANIZATION_ROLE ( 'creator' ) ;
#207 = APPROVAL ( #210, 'UNSPECIFIED' ) ;
#208 = ORIENTED_EDGE ( 'NONE', *, *, #116, .F. ) ;
#209 = FACE_OUTER_BOUND ( 'NONE', #195, .T. ) ;
#210 = APPROVAL_STATUS ( 'not_yet_approved' ) ;
#211 = DIRECTION ( 'NONE',  ( -3.491481338843133355E-15, 1.224646799147353207E-16, -1.000000000000000000 ) ) ;
#212 = DIRECTION ( 'NONE',  ( 0.0000000000000000000, 1.000000000000000000, 0.0000000000000000000 ) ) ;
#213 = CIRCLE ( 'NONE', #73, 1.100000000000000311 ) ;
#214 = EDGE_LOOP ( 'NONE', ( #35 ) ) ;
#215 = PERSON_AND_ORGANIZATION ( #147, #205 ) ;
#216 = PLANE ( 'NONE',  #100 ) ;
#217 = CARTESIAN_POINT ( 'NONE',  ( 1.100000000000000089, 0.0000000000000000000, -3.840629472727447480E-15 ) ) ;
#218 = CARTESIAN_POINT ( 'NONE',  ( 0.0000000000000000000, 0.0000000000000000000, 0.0000000000000000000 ) ) ;
#219 = DATE_TIME_ROLE ( 'creation_date' ) ;
#220 = PERSON_AND_ORGANIZATION_ROLE ( 'creator' ) ;
#221 = AXIS2_PLACEMENT_3D ( 'NONE', #65, #136, #78 ) ;
#222 = LOCAL_TIME ( 7, 36, 42.00000000000000000, #14 ) ;
#223 = EDGE_CURVE ( 'NONE', #177, #177, #105, .T. ) ;
ENDSEC;
END-ISO-10303-21;
