ISO-10303-21;
HEADER;
FILE_DESCRIPTION (( 'STEP AP203' ),
    '1' );
FILE_NAME ('63821.step',
    '2021-11-10T06:36:41',
    ( '' ),
    ( '' ),
    'SwSTEP 2.0',
    'SolidWorks 2019',
    '' );
FILE_SCHEMA (( 'CONFIG_CONTROL_DESIGN' ));
ENDSEC;

DATA;
#1 = DIRECTION ( 'NONE',  ( -3.491481338843133355E-15, 1.224646799147353207E-16, -1.000000000000000000 ) ) ;
#2 = EDGE_CURVE ( 'NONE', #113, #113, #147, .T. ) ;
#3 = COORDINATED_UNIVERSAL_TIME_OFFSET ( 1, 0, .AHEAD. ) ;
#4 = CC_DESIGN_PERSON_AND_ORGANIZATION_ASSIGNMENT ( #49, #47, ( #162 ) ) ;
#5 = VERTEX_POINT ( 'NONE', #177 ) ;
#6 = APPROVAL_DATE_TIME ( #158, #210 ) ;
#7 = APPROVAL_ROLE ( '' ) ;
#8 = LOCAL_TIME ( 7, 36, 41.00000000000000000, #23 ) ;
#9 = AXIS2_PLACEMENT_3D ( 'NONE', #223, #169, #154 ) ;
#10 = CLOSED_SHELL ( 'NONE', ( #82, #197, #53, #78, #85 ) ) ;
#11 = ORIENTED_EDGE ( 'NONE', *, *, #84, .T. ) ;
#12 = CALENDAR_DATE ( 2021, 10, 11 ) ;
#13 = CC_DESIGN_APPROVAL ( #205, ( #162 ) ) ;
#14 = ORIENTED_EDGE ( 'NONE', *, *, #126, .T. ) ;
#15 = EDGE_CURVE ( 'NONE', #211, #211, #16, .T. ) ;
#16 = CIRCLE ( 'NONE', #9, 1.000000000000000888 ) ;
#17 = CARTESIAN_POINT ( 'NONE',  ( 1.728283262727351074E-13, -6.062001655779398511E-15, 49.50000000000000000 ) ) ;
#18 = FACE_OUTER_BOUND ( 'NONE', #189, .T. ) ;
#19 = CARTESIAN_POINT ( 'NONE',  ( 0.0000000000000000000, 0.0000000000000000000, 0.0000000000000000000 ) ) ;
#20 = FACE_OUTER_BOUND ( 'NONE', #71, .T. ) ;
#21 = CARTESIAN_POINT ( 'NONE',  ( 6.982962677686263555E-15, 0.0000000000000000000, 1.999999999999999112 ) ) ;
#22 = ADVANCED_BREP_SHAPE_REPRESENTATION ( '63821', ( #175, #30, #166 ), #172 ) ;
#23 = COORDINATED_UNIVERSAL_TIME_OFFSET ( 1, 0, .AHEAD. ) ;
#24 = DIRECTION ( 'NONE',  ( 0.0000000000000000000, 0.0000000000000000000, 1.000000000000000000 ) ) ;
#25 = AXIS2_PLACEMENT_3D ( 'NONE', #170, #152, #221 ) ;
#26 = DIRECTION ( 'NONE',  ( 1.000000000000000000, 0.0000000000000000000, 0.0000000000000000000 ) ) ;
#27 = CARTESIAN_POINT ( 'NONE',  ( -2.999999999999973799, 0.0000000000000000000, 7.291502622129188538 ) ) ;
#28 = AXIS2_PLACEMENT_3D ( 'NONE', #187, #36, #107 ) ;
#29 = DATE_AND_TIME ( #12, #105 ) ;
#30 = MANIFOLD_SOLID_BREP ( 'Corps-Déplacer/Copier1[2]', #151 ) ;
#31 = DATE_TIME_ROLE ( 'classification_date' ) ;
#32 = PERSON_AND_ORGANIZATION_ROLE ( 'creator' ) ;
#33 = ORIENTED_EDGE ( 'NONE', *, *, #84, .F. ) ;
#34 = FACE_OUTER_BOUND ( 'NONE', #180, .T. ) ;
#35 = EDGE_CURVE ( 'NONE', #5, #5, #199, .T. ) ;
#36 = DIRECTION ( 'NONE',  ( 3.491481338843133355E-15, -0.0000000000000000000, 1.000000000000000000 ) ) ;
#37 = DIRECTION ( 'NONE',  ( 0.0000000000000000000, 1.000000000000000000, 0.0000000000000000000 ) ) ;
#38 = ADVANCED_FACE ( 'NONE', ( #184 ), #39, .F. ) ;
#39 = PLANE ( 'NONE',  #45 ) ;
#40 = CARTESIAN_POINT ( 'NONE',  ( 1.000000000000007772, 0.0000000000000000000, 1.999999999999994893 ) ) ;
#41 = TOROIDAL_SURFACE ( 'NONE', #112, 9.000000000000001776, 8.000000000000000000 ) ;
#42 = DATE_TIME_ROLE ( 'creation_date' ) ;
#43 = APPLICATION_PROTOCOL_DEFINITION ( 'international standard', 'config_control_design', 1994, #156 ) ;
#44 = AXIS2_PLACEMENT_3D ( 'NONE', #153, #73, #222 ) ;
#45 = AXIS2_PLACEMENT_3D ( 'NONE', #121, #125, #75 ) ;
#46 = DIRECTION ( 'NONE',  ( 0.0000000000000000000, 1.000000000000000000, 0.0000000000000000000 ) ) ;
#47 = PERSON_AND_ORGANIZATION_ROLE ( 'design_supplier' ) ;
#48 = PRODUCT_DEFINITION ( 'UNKNOWN', '', #162, #168 ) ;
#49 = PERSON_AND_ORGANIZATION ( #68, #70 ) ;
#50 = CC_DESIGN_PERSON_AND_ORGANIZATION_ASSIGNMENT ( #93, #96, ( #48 ) ) ;
#51 = PERSON_AND_ORGANIZATION_ROLE ( 'classification_officer' ) ;
#52 = DIRECTION ( 'NONE',  ( 3.491481338843133355E-15, -0.0000000000000000000, 1.000000000000000000 ) ) ;
#53 = ADVANCED_FACE ( 'NONE', ( #34 ), #139, .F. ) ;
#54 = ORIENTED_EDGE ( 'NONE', *, *, #2, .T. ) ;
#55 = AXIS2_PLACEMENT_3D ( 'NONE', #110, #146, #131 ) ;
#56 = DIRECTION ( 'NONE',  ( -4.275831445896958607E-31, -1.000000000000000000, -1.224646799147353207E-16 ) ) ;
#57 = EDGE_CURVE ( 'NONE', #132, #132, #190, .T. ) ;
#58 = ORIENTED_EDGE ( 'NONE', *, *, #57, .F. ) ;
#59 = PLANE ( 'NONE',  #201 ) ;
#60 = AXIS2_PLACEMENT_3D ( 'NONE', #219, #104, #106 ) ;
#61 = DIRECTION ( 'NONE',  ( -3.491481338843133355E-15, 1.224646799147353207E-16, -1.000000000000000000 ) ) ;
#62 = CALENDAR_DATE ( 2021, 10, 11 ) ;
#63 =( LENGTH_UNIT ( ) NAMED_UNIT ( * ) SI_UNIT ( .MILLI., .METRE. ) );
#64 = AXIS2_PLACEMENT_3D ( 'NONE', #193, #61, #46 ) ;
#65 = APPROVAL_STATUS ( 'not_yet_approved' ) ;
#66 = DATE_AND_TIME ( #181, #98 ) ;
#67 = SHAPE_DEFINITION_REPRESENTATION ( #144, #22 ) ;
#68 = PERSON ( 'UNSPECIFIED', 'UNSPECIFIED', 'UNSPECIFIED', ('UNSPECIFIED'), ('UNSPECIFIED'), ('UNSPECIFIED') ) ;
#69 = EDGE_LOOP ( 'NONE', ( #218 ) ) ;
#70 = ORGANIZATION ( 'UNSPECIFIED', 'UNSPECIFIED', '' ) ;
#71 = EDGE_LOOP ( 'NONE', ( #204 ) ) ;
#72 = FACE_OUTER_BOUND ( 'NONE', #91, .T. ) ;
#73 = DIRECTION ( 'NONE',  ( -3.491481338843133355E-15, 0.0000000000000000000, -1.000000000000000000 ) ) ;
#74 = CC_DESIGN_APPROVAL ( #210, ( #48 ) ) ;
#75 = DIRECTION ( 'NONE',  ( -4.275831445896958607E-31, -1.000000000000000000, -1.224646799147353207E-16 ) ) ;
#76 = FACE_OUTER_BOUND ( 'NONE', #69, .T. ) ;
#77 = CALENDAR_DATE ( 2021, 10, 11 ) ;
#78 = ADVANCED_FACE ( 'NONE', ( #20, #202 ), #41, .F. ) ;
#79 = AXIS2_PLACEMENT_3D ( 'NONE', #171, #1, #143 ) ;
#80 = CARTESIAN_POINT ( 'NONE',  ( 1.000000000000007772, 0.0000000000000000000, 1.999999999999994893 ) ) ;
#81 = FACE_OUTER_BOUND ( 'NONE', #100, .T. ) ;
#82 = ADVANCED_FACE ( 'NONE', ( #76, #18 ), #157, .T. ) ;
#83 = MECHANICAL_CONTEXT ( 'NONE', #156, 'mechanical' ) ;
#84 = EDGE_CURVE ( 'NONE', #209, #209, #155, .T. ) ;
#85 = ADVANCED_FACE ( 'NONE', ( #207 ), #59, .F. ) ;
#86 = ORIENTED_EDGE ( 'NONE', *, *, #57, .T. ) ;
#87 = COORDINATED_UNIVERSAL_TIME_OFFSET ( 1, 0, .AHEAD. ) ;
#88 = DIRECTION ( 'NONE',  ( -3.491481338843133355E-15, 1.224646799147353207E-16, -1.000000000000000000 ) ) ;
#89 = DIRECTION ( 'NONE',  ( 1.000000000000000000, 0.0000000000000000000, -3.491481338843132961E-15 ) ) ;
#90 = EDGE_LOOP ( 'NONE', ( #124 ) ) ;
#91 = EDGE_LOOP ( 'NONE', ( #115 ) ) ;
#92 = ORIENTED_EDGE ( 'NONE', *, *, #2, .F. ) ;
#93 = PERSON_AND_ORGANIZATION ( #68, #70 ) ;
#94 =( NAMED_UNIT ( * ) PLANE_ANGLE_UNIT ( ) SI_UNIT ( $, .RADIAN. ) );
#95 = VERTEX_POINT ( 'NONE', #80 ) ;
#96 = PERSON_AND_ORGANIZATION_ROLE ( 'creator' ) ;
#97 = CARTESIAN_POINT ( 'NONE',  ( 1.745740669421566678E-13, 2.499999999999995559, 50.00000000000000000 ) ) ;
#98 = LOCAL_TIME ( 7, 36, 41.00000000000000000, #198 ) ;
#99 = APPROVAL_ROLE ( '' ) ;
#100 = EDGE_LOOP ( 'NONE', ( #14 ) ) ;
#101 = LOCAL_TIME ( 7, 36, 41.00000000000000000, #217 ) ;
#102 = APPROVAL_STATUS ( 'not_yet_approved' ) ;
#103 = DIRECTION ( 'NONE',  ( 3.491481338843133355E-15, -1.224646799147353207E-16, 1.000000000000000000 ) ) ;
#104 = DIRECTION ( 'NONE',  ( 3.491481338843133355E-15, -0.0000000000000000000, 1.000000000000000000 ) ) ;
#105 = LOCAL_TIME ( 7, 36, 41.00000000000000000, #87 ) ;
#106 = DIRECTION ( 'NONE',  ( 1.000000000000000000, 0.0000000000000000000, -3.491481338843133355E-15 ) ) ;
#107 = DIRECTION ( 'NONE',  ( 1.000000000000000000, 0.0000000000000000000, -3.491481338843133355E-15 ) ) ;
#108 = DIRECTION ( 'NONE',  ( 4.275831445896958607E-31, 1.000000000000000000, 1.224646799147353207E-16 ) ) ;
#109 = APPROVAL_PERSON_ORGANIZATION ( #214, #210, #7 ) ;
#110 = CARTESIAN_POINT ( 'NONE',  ( 6.982962677686266711E-15, 2.249639673992783127E-32, 2.000000000000000000 ) ) ;
#111 = CC_DESIGN_DATE_AND_TIME_ASSIGNMENT ( #145, #42, ( #48 ) ) ;
#112 = AXIS2_PLACEMENT_3D ( 'NONE', #21, #52, #89 ) ;
#113 = VERTEX_POINT ( 'NONE', #133 ) ;
#114 = DATE_AND_TIME ( #178, #101 ) ;
#115 = ORIENTED_EDGE ( 'NONE', *, *, #126, .F. ) ;
#116 = CC_DESIGN_PERSON_AND_ORGANIZATION_ASSIGNMENT ( #135, #51, ( #138 ) ) ;
#117 = APPROVAL_DATE_TIME ( #114, #141 ) ;
#118 = CC_DESIGN_APPROVAL ( #141, ( #138 ) ) ;
#119 = EDGE_LOOP ( 'NONE', ( #92 ) ) ;
#120 = EDGE_LOOP ( 'NONE', ( #54 ) ) ;
#121 = CARTESIAN_POINT ( 'NONE',  ( -3.206816838010677856E-31, 1.124799933034399755E-32, -9.184688465421452921E-17 ) ) ;
#122 = CC_DESIGN_DATE_AND_TIME_ASSIGNMENT ( #29, #31, ( #138 ) ) ;
#123 = CC_DESIGN_SECURITY_CLASSIFICATION ( #138, ( #162 ) ) ;
#124 = ORIENTED_EDGE ( 'NONE', *, *, #15, .F. ) ;
#125 = DIRECTION ( 'NONE',  ( 3.491481338843133355E-15, -1.224646799147353207E-16, 1.000000000000000000 ) ) ;
#126 = EDGE_CURVE ( 'NONE', #95, #95, #159, .T. ) ;
#127 = CARTESIAN_POINT ( 'NONE',  ( 1.745740669421566678E-13, 1.874699728327314346E-32, 50.00000000000000000 ) ) ;
#128 = AXIS2_PLACEMENT_3D ( 'NONE', #19, #191, #203 ) ;
#129 = PERSON_AND_ORGANIZATION_ROLE ( 'design_owner' ) ;
#130 = CC_DESIGN_PERSON_AND_ORGANIZATION_ASSIGNMENT ( #160, #129, ( #195 ) ) ;
#131 = DIRECTION ( 'NONE',  ( -4.275831445896958607E-31, -1.000000000000000000, -1.224646799147353207E-16 ) ) ;
#132 = VERTEX_POINT ( 'NONE', #27 ) ;
#133 = CARTESIAN_POINT ( 'NONE',  ( 1.000000000000000000, 0.0000000000000000000, -3.491481338843133355E-15 ) ) ;
#134 = AXIS2_PLACEMENT_3D ( 'NONE', #17, #167, #37 ) ;
#135 = PERSON_AND_ORGANIZATION ( #68, #70 ) ;
#136 = SECURITY_CLASSIFICATION_LEVEL ( 'unclassified' ) ;
#137 = PRODUCT_RELATED_PRODUCT_CATEGORY ( 'detail', '', ( #195 ) ) ;
#138 = SECURITY_CLASSIFICATION ( '', '', #136 ) ;
#139 = PLANE ( 'NONE',  #220 ) ;
#140 = FACE_OUTER_BOUND ( 'NONE', #120, .T. ) ;
#141 = APPROVAL ( #102, 'UNSPECIFIED' ) ;
#142 = CARTESIAN_POINT ( 'NONE',  ( 6.982962677686266711E-15, 2.249639673992783127E-32, 2.000000000000000000 ) ) ;
#143 = DIRECTION ( 'NONE',  ( 0.0000000000000000000, 1.000000000000000000, 0.0000000000000000000 ) ) ;
#144 = PRODUCT_DEFINITION_SHAPE ( 'NONE', 'NONE',  #48 ) ;
#145 = DATE_AND_TIME ( #77, #192 ) ;
#146 = DIRECTION ( 'NONE',  ( 3.491481338843133355E-15, -1.224646799147353207E-16, 1.000000000000000000 ) ) ;
#147 = CIRCLE ( 'NONE', #60, 1.000000000000000000 ) ;
#148 = FACE_OUTER_BOUND ( 'NONE', #150, .T. ) ;
#149 = APPLICATION_PROTOCOL_DEFINITION ( 'international standard', 'config_control_design', 1994, #164 ) ;
#150 = EDGE_LOOP ( 'NONE', ( #183 ) ) ;
#151 = CLOSED_SHELL ( 'NONE', ( #216, #194, #38 ) ) ;
#152 = DIRECTION ( 'NONE',  ( 3.491481338843133355E-15, -0.0000000000000000000, 1.000000000000000000 ) ) ;
#153 = CARTESIAN_POINT ( 'NONE',  ( 2.545814533728980109E-14, 0.0000000000000000000, 7.291502622129177880 ) ) ;
#154 = DIRECTION ( 'NONE',  ( 1.000000000000000000, 0.0000000000000000000, -3.469446951953611033E-15 ) ) ;
#155 = CIRCLE ( 'NONE', #79, 2.500000000000001776 ) ;
#156 = APPLICATION_CONTEXT ( 'configuration controlled 3d designs of mechanical parts and assemblies' ) ;
#157 = CYLINDRICAL_SURFACE ( 'NONE', #128, 2.999999999999999112 ) ;
#158 = DATE_AND_TIME ( #62, #8 ) ;
#159 = CIRCLE ( 'NONE', #25, 1.000000000000000888 ) ;
#160 = PERSON_AND_ORGANIZATION ( #68, #70 ) ;
#161 = CARTESIAN_POINT ( 'NONE',  ( 0.0000000000000000000, 0.0000000000000000000, 0.0000000000000000000 ) ) ;
#162 = PRODUCT_DEFINITION_FORMATION_WITH_SPECIFIED_SOURCE ( 'ANY', '', #195, .NOT_KNOWN. ) ;
#163 = EDGE_LOOP ( 'NONE', ( #86 ) ) ;
#164 = APPLICATION_CONTEXT ( 'configuration controlled 3d designs of mechanical parts and assemblies' ) ;
#165 = PERSON_AND_ORGANIZATION ( #68, #70 ) ;
#166 = AXIS2_PLACEMENT_3D ( 'NONE', #161, #24, #26 ) ;
#167 = DIRECTION ( 'NONE',  ( -3.491481338843133355E-15, 1.224646799147353207E-16, -1.000000000000000000 ) ) ;
#168 = DESIGN_CONTEXT ( 'detailed design', #164, 'design' ) ;
#169 = DIRECTION ( 'NONE',  ( 3.491481338843133355E-15, -0.0000000000000000000, 1.000000000000000000 ) ) ;
#170 = CARTESIAN_POINT ( 'NONE',  ( 6.982962677686260400E-15, 0.0000000000000000000, 1.999999999999998224 ) ) ;
#171 = CARTESIAN_POINT ( 'NONE',  ( 1.745740669421566678E-13, -6.123233995736766085E-15, 50.00000000000000000 ) ) ;
#172 =( GEOMETRIC_REPRESENTATION_CONTEXT ( 3 ) GLOBAL_UNCERTAINTY_ASSIGNED_CONTEXT ( ( #186 ) ) GLOBAL_UNIT_ASSIGNED_CONTEXT ( ( #63, #94, #173 ) ) REPRESENTATION_CONTEXT ( 'NONE', 'WORKASPACE' ) );
#173 =( NAMED_UNIT ( * ) SI_UNIT ( $, .STERADIAN. ) SOLID_ANGLE_UNIT ( ) );
#174 = APPROVAL_STATUS ( 'not_yet_approved' ) ;
#175 = MANIFOLD_SOLID_BREP ( 'Corps-Déplacer/Copier1[1]', #10 ) ;
#176 = PERSON_AND_ORGANIZATION ( #68, #70 ) ;
#177 = CARTESIAN_POINT ( 'NONE',  ( 1.728283262727351074E-13, 2.999999999999995559, 49.50000000000000000 ) ) ;
#178 = CALENDAR_DATE ( 2021, 10, 11 ) ;
#179 = CONICAL_SURFACE ( 'NONE', #64, 2.500000000000001776, 0.7853981633974479459 ) ;
#180 = EDGE_LOOP ( 'NONE', ( #33 ) ) ;
#181 = CALENDAR_DATE ( 2021, 10, 11 ) ;
#182 = APPROVAL_ROLE ( '' ) ;
#183 = ORIENTED_EDGE ( 'NONE', *, *, #35, .F. ) ;
#184 = FACE_OUTER_BOUND ( 'NONE', #119, .T. ) ;
#185 = CYLINDRICAL_SURFACE ( 'NONE', #28, 1.000000000000000444 ) ;
#186 = UNCERTAINTY_MEASURE_WITH_UNIT (LENGTH_MEASURE( 1.000000000000000082E-05 ), #63, 'distance_accuracy_value', 'NONE');
#187 = CARTESIAN_POINT ( 'NONE',  ( 0.0000000000000000000, 0.0000000000000000000, 0.0000000000000000000 ) ) ;
#188 = CC_DESIGN_PERSON_AND_ORGANIZATION_ASSIGNMENT ( #165, #32, ( #162 ) ) ;
#189 = EDGE_LOOP ( 'NONE', ( #58 ) ) ;
#190 = CIRCLE ( 'NONE', #44, 2.999999999999999112 ) ;
#191 = DIRECTION ( 'NONE',  ( -3.491481338843133355E-15, 1.224646799147353207E-16, -1.000000000000000000 ) ) ;
#192 = LOCAL_TIME ( 7, 36, 41.00000000000000000, #3 ) ;
#193 = CARTESIAN_POINT ( 'NONE',  ( 1.745740669421566678E-13, -6.123233995736766085E-15, 50.00000000000000000 ) ) ;
#194 = ADVANCED_FACE ( 'NONE', ( #140, #72 ), #185, .T. ) ;
#195 = PRODUCT ( '63821', '63821', '', ( #83 ) ) ;
#196 = FACE_BOUND ( 'NONE', #206, .T. ) ;
#197 = ADVANCED_FACE ( 'NONE', ( #148, #196 ), #179, .T. ) ;
#198 = COORDINATED_UNIVERSAL_TIME_OFFSET ( 1, 0, .AHEAD. ) ;
#199 = CIRCLE ( 'NONE', #134, 3.000000000000001776 ) ;
#200 = APPROVAL_DATE_TIME ( #66, #205 ) ;
#201 = AXIS2_PLACEMENT_3D ( 'NONE', #142, #103, #56 ) ;
#202 = FACE_OUTER_BOUND ( 'NONE', #163, .T. ) ;
#203 = DIRECTION ( 'NONE',  ( 4.275831445896958607E-31, 1.000000000000000000, 1.224646799147353207E-16 ) ) ;
#204 = ORIENTED_EDGE ( 'NONE', *, *, #15, .T. ) ;
#205 = APPROVAL ( #174, 'UNSPECIFIED' ) ;
#206 = EDGE_LOOP ( 'NONE', ( #11 ) ) ;
#207 = FACE_OUTER_BOUND ( 'NONE', #90, .T. ) ;
#208 = APPROVAL_PERSON_ORGANIZATION ( #176, #205, #182 ) ;
#209 = VERTEX_POINT ( 'NONE', #97 ) ;
#210 = APPROVAL ( #65, 'UNSPECIFIED' ) ;
#211 = VERTEX_POINT ( 'NONE', #40 ) ;
#212 = PLANE ( 'NONE',  #55 ) ;
#213 = APPROVAL_PERSON_ORGANIZATION ( #215, #141, #99 ) ;
#214 = PERSON_AND_ORGANIZATION ( #68, #70 ) ;
#215 = PERSON_AND_ORGANIZATION ( #68, #70 ) ;
#216 = ADVANCED_FACE ( 'NONE', ( #81 ), #212, .T. ) ;
#217 = COORDINATED_UNIVERSAL_TIME_OFFSET ( 1, 0, .AHEAD. ) ;
#218 = ORIENTED_EDGE ( 'NONE', *, *, #35, .T. ) ;
#219 = CARTESIAN_POINT ( 'NONE',  ( 0.0000000000000000000, 0.0000000000000000000, 0.0000000000000000000 ) ) ;
#220 = AXIS2_PLACEMENT_3D ( 'NONE', #127, #88, #108 ) ;
#221 = DIRECTION ( 'NONE',  ( 1.000000000000000000, 0.0000000000000000000, -3.469446951953611033E-15 ) ) ;
#222 = DIRECTION ( 'NONE',  ( -1.000000000000000000, 0.0000000000000000000, 3.469446951953615372E-15 ) ) ;
#223 = CARTESIAN_POINT ( 'NONE',  ( 6.982962677686260400E-15, 0.0000000000000000000, 1.999999999999998224 ) ) ;
ENDSEC;
END-ISO-10303-21;
