ISO-10303-21;
HEADER;
FILE_DESCRIPTION (( 'STEP AP203' ),
    '1' );
FILE_NAME ('63820.step',
    '2021-11-10T06:36:40',
    ( '' ),
    ( '' ),
    'SwSTEP 2.0',
    'SolidWorks 2019',
    '' );
FILE_SCHEMA (( 'CONFIG_CONTROL_DESIGN' ));
ENDSEC;

DATA;
#1 = CARTESIAN_POINT ( 'NONE',  ( 1.326762908760390423E-13, 1.199999999999994182, 38.00000000000000000 ) ) ;
#2 = EDGE_CURVE ( 'NONE', #200, #200, #152, .T. ) ;
#3 = PERSON_AND_ORGANIZATION_ROLE ( 'creator' ) ;
#4 = CARTESIAN_POINT ( 'NONE',  ( 6.808388610744104521E-15, 0.0000000000000000000, 1.949999999999998401 ) ) ;
#5 = AXIS2_PLACEMENT_3D ( 'NONE', #125, #48, #182 ) ;
#6 = DIRECTION ( 'NONE',  ( 3.491481338843133355E-15, -1.224646799147353207E-16, 1.000000000000000000 ) ) ;
#7 = PERSON_AND_ORGANIZATION ( #84, #162 ) ;
#8 = ORIENTED_EDGE ( 'NONE', *, *, #192, .T. ) ;
#9 = EDGE_LOOP ( 'NONE', ( #133 ) ) ;
#10 = ORIENTED_EDGE ( 'NONE', *, *, #103, .F. ) ;
#11 = CYLINDRICAL_SURFACE ( 'NONE', #44, 1.499999999999996447 ) ;
#12 = APPLICATION_CONTEXT ( 'configuration controlled 3d designs of mechanical parts and assemblies' ) ;
#13 = ORIENTED_EDGE ( 'NONE', *, *, #68, .F. ) ;
#14 = AXIS2_PLACEMENT_3D ( 'NONE', #206, #198, #123 ) ;
#15 = APPROVAL ( #144, 'UNSPECIFIED' ) ;
#16 = FACE_OUTER_BOUND ( 'NONE', #104, .T. ) ;
#17 = EDGE_LOOP ( 'NONE', ( #8 ) ) ;
#18 = ORIENTED_EDGE ( 'NONE', *, *, #59, .T. ) ;
#19 = AXIS2_PLACEMENT_3D ( 'NONE', #184, #107, #126 ) ;
#20 = LOCAL_TIME ( 7, 36, 40.00000000000000000, #100 ) ;
#21 = CARTESIAN_POINT ( 'NONE',  ( 0.0000000000000000000, 0.0000000000000000000, 0.0000000000000000000 ) ) ;
#22 = CC_DESIGN_PERSON_AND_ORGANIZATION_ASSIGNMENT ( #7, #41, ( #56 ) ) ;
#23 = DIRECTION ( 'NONE',  ( -4.275831445896958607E-31, -1.000000000000000000, -1.224646799147353207E-16 ) ) ;
#24 = FACE_OUTER_BOUND ( 'NONE', #17, .T. ) ;
#25 =( NAMED_UNIT ( * ) SI_UNIT ( $, .STERADIAN. ) SOLID_ANGLE_UNIT ( ) );
#26 = CALENDAR_DATE ( 2021, 10, 11 ) ;
#27 = PERSON_AND_ORGANIZATION ( #84, #162 ) ;
#28 = CARTESIAN_POINT ( 'NONE',  ( -6.413803915257457113E-31, 2.249659577954772199E-32, -1.836986451539393076E-16 ) ) ;
#29 = LOCAL_TIME ( 7, 36, 40.00000000000000000, #53 ) ;
#30 = CLOSED_SHELL ( 'NONE', ( #208, #73, #94 ) ) ;
#31 = APPROVAL_PERSON_ORGANIZATION ( #189, #42, #112 ) ;
#32 = ORIENTED_EDGE ( 'NONE', *, *, #68, .T. ) ;
#33 = DIRECTION ( 'NONE',  ( -1.000000000000000000, 0.0000000000000000000, 3.469446951953622472E-15 ) ) ;
#34 = EDGE_CURVE ( 'NONE', #50, #50, #54, .T. ) ;
#35 = DIRECTION ( 'NONE',  ( 1.000000000000000000, 0.0000000000000000000, -3.491481338843132961E-15 ) ) ;
#36 = DIRECTION ( 'NONE',  ( 1.000000000000000000, 0.0000000000000000000, 0.0000000000000000000 ) ) ;
#37 = VERTEX_POINT ( 'NONE', #204 ) ;
#38 = VERTEX_POINT ( 'NONE', #183 ) ;
#39 = DIRECTION ( 'NONE',  ( 0.0000000000000000000, 1.000000000000000000, 0.0000000000000000000 ) ) ;
#40 = APPROVAL_STATUS ( 'not_yet_approved' ) ;
#41 = PERSON_AND_ORGANIZATION_ROLE ( 'classification_officer' ) ;
#42 = APPROVAL ( #40, 'UNSPECIFIED' ) ;
#43 = CIRCLE ( 'NONE', #193, 1.499999999999996447 ) ;
#44 = AXIS2_PLACEMENT_3D ( 'NONE', #81, #79, #99 ) ;
#45 = DIRECTION ( 'NONE',  ( 1.000000000000000000, 0.0000000000000000000, -3.558407130208834256E-15 ) ) ;
#46 = AXIS2_PLACEMENT_3D ( 'NONE', #186, #209, #187 ) ;
#47 = FACE_OUTER_BOUND ( 'NONE', #160, .T. ) ;
#48 = DIRECTION ( 'NONE',  ( 3.491481338843133355E-15, -0.0000000000000000000, 1.000000000000000000 ) ) ;
#49 = CARTESIAN_POINT ( 'NONE',  ( 1.316288464743861212E-13, 1.499999999999994005, 37.69999999999999574 ) ) ;
#50 = VERTEX_POINT ( 'NONE', #49 ) ;
#51 = VERTEX_POINT ( 'NONE', #88 ) ;
#52 = CC_DESIGN_DATE_AND_TIME_ASSIGNMENT ( #65, #138, ( #202 ) ) ;
#53 = COORDINATED_UNIVERSAL_TIME_OFFSET ( 1, 0, .AHEAD. ) ;
#54 = CIRCLE ( 'NONE', #89, 1.499999999999998446 ) ;
#55 = APPROVAL_DATE_TIME ( #190, #15 ) ;
#56 = SECURITY_CLASSIFICATION ( '', '', #159 ) ;
#57 = COORDINATED_UNIVERSAL_TIME_OFFSET ( 1, 0, .AHEAD. ) ;
#58 = DIRECTION ( 'NONE',  ( 3.491481338843133355E-15, -0.0000000000000000000, 1.000000000000000000 ) ) ;
#59 = EDGE_CURVE ( 'NONE', #38, #38, #212, .T. ) ;
#60 = EDGE_LOOP ( 'NONE', ( #164 ) ) ;
#61 = AXIS2_PLACEMENT_3D ( 'NONE', #139, #58, #169 ) ;
#62 = FACE_OUTER_BOUND ( 'NONE', #135, .T. ) ;
#63 = EDGE_LOOP ( 'NONE', ( #96 ) ) ;
#64 = APPROVAL ( #141, 'UNSPECIFIED' ) ;
#65 = DATE_AND_TIME ( #128, #134 ) ;
#66 = APPROVAL_PERSON_ORGANIZATION ( #69, #64, #92 ) ;
#67 = CARTESIAN_POINT ( 'NONE',  ( 0.0000000000000000000, 0.0000000000000000000, 0.0000000000000000000 ) ) ;
#68 = EDGE_CURVE ( 'NONE', #168, #168, #43, .T. ) ;
#69 = PERSON_AND_ORGANIZATION ( #84, #162 ) ;
#70 = DESIGN_CONTEXT ( 'detailed design', #124, 'design' ) ;
#71 =( LENGTH_UNIT ( ) NAMED_UNIT ( * ) SI_UNIT ( .MILLI., .METRE. ) );
#72 = APPLICATION_PROTOCOL_DEFINITION ( 'international standard', 'config_control_design', 1994, #12 ) ;
#73 = ADVANCED_FACE ( 'NONE', ( #119, #148 ), #161, .T. ) ;
#74 = DATE_AND_TIME ( #26, #29 ) ;
#75 = CALENDAR_DATE ( 2021, 10, 11 ) ;
#76 = CC_DESIGN_SECURITY_CLASSIFICATION ( #56, ( #117 ) ) ;
#77 = DIRECTION ( 'NONE',  ( -4.275831445896958607E-31, -1.000000000000000000, -1.224646799147353207E-16 ) ) ;
#78 = SHAPE_DEFINITION_REPRESENTATION ( #167, #223 ) ;
#79 = DIRECTION ( 'NONE',  ( -3.491481338843133355E-15, 1.224646799147353207E-16, -1.000000000000000000 ) ) ;
#80 = CIRCLE ( 'NONE', #115, 0.9750000000000001998 ) ;
#81 = CARTESIAN_POINT ( 'NONE',  ( 0.0000000000000000000, 0.0000000000000000000, 0.0000000000000000000 ) ) ;
#82 = DIRECTION ( 'NONE',  ( 3.491481338843133355E-15, -0.0000000000000000000, 1.000000000000000000 ) ) ;
#83 = EDGE_LOOP ( 'NONE', ( #10 ) ) ;
#84 = PERSON ( 'UNSPECIFIED', 'UNSPECIFIED', 'UNSPECIFIED', ('UNSPECIFIED'), ('UNSPECIFIED'), ('UNSPECIFIED') ) ;
#85 = EDGE_LOOP ( 'NONE', ( #219 ) ) ;
#86 = PLANE ( 'NONE',  #172 ) ;
#87 = MANIFOLD_SOLID_BREP ( 'Corps-Déplacer/Copier1[2]', #30 ) ;
#88 = CARTESIAN_POINT ( 'NONE',  ( 0.9750000000000069722, 0.0000000000000000000, 1.949999999999994849 ) ) ;
#89 = AXIS2_PLACEMENT_3D ( 'NONE', #221, #203, #39 ) ;
#90 =( GEOMETRIC_REPRESENTATION_CONTEXT ( 3 ) GLOBAL_UNCERTAINTY_ASSIGNED_CONTEXT ( ( #185 ) ) GLOBAL_UNIT_ASSIGNED_CONTEXT ( ( #71, #181, #25 ) ) REPRESENTATION_CONTEXT ( 'NONE', 'WORKASPACE' ) );
#91 = PERSON_AND_ORGANIZATION ( #84, #162 ) ;
#92 = APPROVAL_ROLE ( '' ) ;
#93 = PERSON_AND_ORGANIZATION_ROLE ( 'design_owner' ) ;
#94 = ADVANCED_FACE ( 'NONE', ( #62 ), #86, .F. ) ;
#95 = APPROVAL_PERSON_ORGANIZATION ( #27, #15, #211 ) ;
#96 = ORIENTED_EDGE ( 'NONE', *, *, #2, .T. ) ;
#97 = DIRECTION ( 'NONE',  ( 4.275831445896958607E-31, 1.000000000000000000, 1.224646799147353207E-16 ) ) ;
#98 = ORIENTED_EDGE ( 'NONE', *, *, #103, .T. ) ;
#99 = DIRECTION ( 'NONE',  ( 4.275831445896958607E-31, 1.000000000000000000, 1.224646799147352961E-16 ) ) ;
#100 = COORDINATED_UNIVERSAL_TIME_OFFSET ( 1, 0, .AHEAD. ) ;
#101 = CC_DESIGN_PERSON_AND_ORGANIZATION_ASSIGNMENT ( #91, #93, ( #137 ) ) ;
#102 = LOCAL_TIME ( 7, 36, 40.00000000000000000, #155 ) ;
#103 = EDGE_CURVE ( 'NONE', #37, #37, #108, .T. ) ;
#104 = EDGE_LOOP ( 'NONE', ( #98 ) ) ;
#105 = EDGE_LOOP ( 'NONE', ( #32 ) ) ;
#106 = MECHANICAL_CONTEXT ( 'NONE', #12, 'mechanical' ) ;
#107 = DIRECTION ( 'NONE',  ( 3.491481338843133355E-15, -0.0000000000000000000, 1.000000000000000000 ) ) ;
#108 = CIRCLE ( 'NONE', #61, 0.9750000000000001998 ) ;
#109 = CARTESIAN_POINT ( 'NONE',  ( -1.499999999999979572, 0.0000000000000000000, 4.800328928387031624 ) ) ;
#110 = ADVANCED_FACE ( 'NONE', ( #24, #194 ), #207, .F. ) ;
#111 = PERSON_AND_ORGANIZATION ( #84, #162 ) ;
#112 = APPROVAL_ROLE ( '' ) ;
#113 = AXIS2_PLACEMENT_3D ( 'NONE', #170, #166, #23 ) ;
#114 = PERSON_AND_ORGANIZATION_ROLE ( 'creator' ) ;
#115 = AXIS2_PLACEMENT_3D ( 'NONE', #4, #82, #45 ) ;
#116 = PRODUCT_RELATED_PRODUCT_CATEGORY ( 'detail', '', ( #137 ) ) ;
#117 = PRODUCT_DEFINITION_FORMATION_WITH_SPECIFIED_SOURCE ( 'ANY', '', #137, .NOT_KNOWN. ) ;
#118 = CARTESIAN_POINT ( 'NONE',  ( 1.326762908760390423E-13, -4.653657836759941941E-15, 38.00000000000000000 ) ) ;
#119 = FACE_OUTER_BOUND ( 'NONE', #121, .T. ) ;
#120 = PLANE ( 'NONE',  #113 ) ;
#121 = EDGE_LOOP ( 'NONE', ( #18 ) ) ;
#122 = PLANE ( 'NONE',  #46 ) ;
#123 = DIRECTION ( 'NONE',  ( 0.0000000000000000000, 1.000000000000000000, 0.0000000000000000000 ) ) ;
#124 = APPLICATION_CONTEXT ( 'configuration controlled 3d designs of mechanical parts and assemblies' ) ;
#125 = CARTESIAN_POINT ( 'NONE',  ( 6.808388610744108465E-15, 0.0000000000000000000, 1.949999999999999512 ) ) ;
#126 = DIRECTION ( 'NONE',  ( 1.000000000000000000, 0.0000000000000000000, -3.491481338843133355E-15 ) ) ;
#127 = APPROVAL_DATE_TIME ( #205, #64 ) ;
#128 = CALENDAR_DATE ( 2021, 10, 11 ) ;
#129 = FACE_OUTER_BOUND ( 'NONE', #85, .T. ) ;
#130 = AXIS2_PLACEMENT_3D ( 'NONE', #118, #196, #151 ) ;
#131 = PERSON_AND_ORGANIZATION_ROLE ( 'design_supplier' ) ;
#132 = ADVANCED_FACE ( 'NONE', ( #150, #218 ), #179, .T. ) ;
#133 = ORIENTED_EDGE ( 'NONE', *, *, #34, .T. ) ;
#134 = LOCAL_TIME ( 7, 36, 40.00000000000000000, #157 ) ;
#135 = EDGE_LOOP ( 'NONE', ( #143 ) ) ;
#136 = CC_DESIGN_PERSON_AND_ORGANIZATION_ASSIGNMENT ( #111, #3, ( #202 ) ) ;
#137 = PRODUCT ( '63820', '63820', '', ( #106 ) ) ;
#138 = DATE_TIME_ROLE ( 'creation_date' ) ;
#139 = CARTESIAN_POINT ( 'NONE',  ( 6.808388610744104521E-15, 0.0000000000000000000, 1.949999999999998401 ) ) ;
#140 = DIRECTION ( 'NONE',  ( -3.491481338843133355E-15, 1.224646799147353207E-16, -1.000000000000000000 ) ) ;
#141 = APPROVAL_STATUS ( 'not_yet_approved' ) ;
#142 = APPLICATION_PROTOCOL_DEFINITION ( 'international standard', 'config_control_design', 1994, #124 ) ;
#143 = ORIENTED_EDGE ( 'NONE', *, *, #59, .F. ) ;
#144 = APPROVAL_STATUS ( 'not_yet_approved' ) ;
#145 = CC_DESIGN_APPROVAL ( #15, ( #56 ) ) ;
#146 = APPROVAL_DATE_TIME ( #173, #42 ) ;
#147 = AXIS2_PLACEMENT_3D ( 'NONE', #21, #199, #35 ) ;
#148 = FACE_OUTER_BOUND ( 'NONE', #83, .T. ) ;
#149 = ADVANCED_FACE ( 'NONE', ( #220, #178 ), #11, .T. ) ;
#150 = FACE_OUTER_BOUND ( 'NONE', #60, .T. ) ;
#151 = DIRECTION ( 'NONE',  ( 0.0000000000000000000, 1.000000000000000000, 0.0000000000000000000 ) ) ;
#152 = CIRCLE ( 'NONE', #14, 1.199999999999998845 ) ;
#153 = CC_DESIGN_APPROVAL ( #42, ( #117 ) ) ;
#154 = DIRECTION ( 'NONE',  ( 0.0000000000000000000, 0.0000000000000000000, 1.000000000000000000 ) ) ;
#155 = COORDINATED_UNIVERSAL_TIME_OFFSET ( 1, 0, .AHEAD. ) ;
#156 = CALENDAR_DATE ( 2021, 10, 11 ) ;
#157 = COORDINATED_UNIVERSAL_TIME_OFFSET ( 1, 0, .AHEAD. ) ;
#158 = DATE_TIME_ROLE ( 'classification_date' ) ;
#159 = SECURITY_CLASSIFICATION_LEVEL ( 'unclassified' ) ;
#160 = EDGE_LOOP ( 'NONE', ( #214 ) ) ;
#161 = CYLINDRICAL_SURFACE ( 'NONE', #147, 0.9750000000000000888 ) ;
#162 = ORGANIZATION ( 'UNSPECIFIED', 'UNSPECIFIED', '' ) ;
#163 = MANIFOLD_SOLID_BREP ( 'Corps-Déplacer/Copier1[1]', #215 ) ;
#164 = ORIENTED_EDGE ( 'NONE', *, *, #34, .F. ) ;
#165 = CARTESIAN_POINT ( 'NONE',  ( 1.326762908760390423E-13, 8.998558695971069014E-33, 38.00000000000000000 ) ) ;
#166 = DIRECTION ( 'NONE',  ( 3.491481338843133355E-15, -1.224646799147353207E-16, 1.000000000000000000 ) ) ;
#167 = PRODUCT_DEFINITION_SHAPE ( 'NONE', 'NONE',  #202 ) ;
#168 = VERTEX_POINT ( 'NONE', #109 ) ;
#169 = DIRECTION ( 'NONE',  ( 1.000000000000000000, 0.0000000000000000000, -3.558407130208834256E-15 ) ) ;
#170 = CARTESIAN_POINT ( 'NONE',  ( 6.808388610744110043E-15, -2.818925648462319417E-16, 1.949999999999999956 ) ) ;
#171 = CC_DESIGN_PERSON_AND_ORGANIZATION_ASSIGNMENT ( #175, #114, ( #117 ) ) ;
#172 = AXIS2_PLACEMENT_3D ( 'NONE', #28, #6, #77 ) ;
#173 = DATE_AND_TIME ( #75, #217 ) ;
#174 = PLANE ( 'NONE',  #213 ) ;
#175 = PERSON_AND_ORGANIZATION ( #84, #162 ) ;
#176 = CC_DESIGN_DATE_AND_TIME_ASSIGNMENT ( #74, #158, ( #56 ) ) ;
#177 = PERSON_AND_ORGANIZATION ( #84, #162 ) ;
#178 = FACE_OUTER_BOUND ( 'NONE', #195, .T. ) ;
#179 = CONICAL_SURFACE ( 'NONE', #130, 1.199999999999998845, 0.7853981633974450594 ) ;
#180 = CC_DESIGN_PERSON_AND_ORGANIZATION_ASSIGNMENT ( #177, #131, ( #117 ) ) ;
#181 =( NAMED_UNIT ( * ) PLANE_ANGLE_UNIT ( ) SI_UNIT ( $, .RADIAN. ) );
#182 = DIRECTION ( 'NONE',  ( 1.000000000000000000, 0.0000000000000000000, -3.491481338843133355E-15 ) ) ;
#183 = CARTESIAN_POINT ( 'NONE',  ( 0.9749999999999999778, 0.0000000000000000000, -3.404194305372055021E-15 ) ) ;
#184 = CARTESIAN_POINT ( 'NONE',  ( 0.0000000000000000000, 0.0000000000000000000, 0.0000000000000000000 ) ) ;
#185 = UNCERTAINTY_MEASURE_WITH_UNIT (LENGTH_MEASURE( 1.000000000000000082E-05 ), #71, 'distance_accuracy_value', 'NONE');
#186 = CARTESIAN_POINT ( 'NONE',  ( 6.808388610744110043E-15, -2.818925648462319417E-16, 1.949999999999999956 ) ) ;
#187 = DIRECTION ( 'NONE',  ( -4.275831445896958607E-31, -1.000000000000000000, -1.224646799147353207E-16 ) ) ;
#188 = ADVANCED_FACE ( 'NONE', ( #129 ), #174, .F. ) ;
#189 = PERSON_AND_ORGANIZATION ( #84, #162 ) ;
#190 = DATE_AND_TIME ( #210, #20 ) ;
#191 = AXIS2_PLACEMENT_3D ( 'NONE', #67, #154, #36 ) ;
#192 = EDGE_CURVE ( 'NONE', #51, #51, #80, .T. ) ;
#193 = AXIS2_PLACEMENT_3D ( 'NONE', #197, #201, #33 ) ;
#194 = FACE_OUTER_BOUND ( 'NONE', #105, .T. ) ;
#195 = EDGE_LOOP ( 'NONE', ( #13 ) ) ;
#196 = DIRECTION ( 'NONE',  ( -3.491481338843133355E-15, 1.224646799147353207E-16, -1.000000000000000000 ) ) ;
#197 = CARTESIAN_POINT ( 'NONE',  ( 1.676025887377215784E-14, 0.0000000000000000000, 4.800328928387026295 ) ) ;
#198 = DIRECTION ( 'NONE',  ( -3.491481338843133355E-15, 1.224646799147353207E-16, -1.000000000000000000 ) ) ;
#199 = DIRECTION ( 'NONE',  ( 3.491481338843133355E-15, -0.0000000000000000000, 1.000000000000000000 ) ) ;
#200 = VERTEX_POINT ( 'NONE', #1 ) ;
#201 = DIRECTION ( 'NONE',  ( -3.491481338843133355E-15, 0.0000000000000000000, -1.000000000000000000 ) ) ;
#202 = PRODUCT_DEFINITION ( 'UNKNOWN', '', #117, #70 ) ;
#203 = DIRECTION ( 'NONE',  ( -3.491481338843133355E-15, 1.224646799147353207E-16, -1.000000000000000000 ) ) ;
#204 = CARTESIAN_POINT ( 'NONE',  ( 0.9750000000000069722, 0.0000000000000000000, 1.949999999999994849 ) ) ;
#205 = DATE_AND_TIME ( #156, #102 ) ;
#206 = CARTESIAN_POINT ( 'NONE',  ( 1.326762908760390423E-13, -4.653657836759941941E-15, 38.00000000000000000 ) ) ;
#207 = TOROIDAL_SURFACE ( 'NONE', #5, 8.974999999999999645, 8.000000000000000000 ) ;
#208 = ADVANCED_FACE ( 'NONE', ( #16 ), #122, .T. ) ;
#209 = DIRECTION ( 'NONE',  ( 3.491481338843133355E-15, -1.224646799147353207E-16, 1.000000000000000000 ) ) ;
#210 = CALENDAR_DATE ( 2021, 10, 11 ) ;
#211 = APPROVAL_ROLE ( '' ) ;
#212 = CIRCLE ( 'NONE', #19, 0.9749999999999999778 ) ;
#213 = AXIS2_PLACEMENT_3D ( 'NONE', #165, #140, #97 ) ;
#214 = ORIENTED_EDGE ( 'NONE', *, *, #192, .F. ) ;
#215 = CLOSED_SHELL ( 'NONE', ( #149, #132, #188, #110, #216 ) ) ;
#216 = ADVANCED_FACE ( 'NONE', ( #47 ), #120, .F. ) ;
#217 = LOCAL_TIME ( 7, 36, 40.00000000000000000, #57 ) ;
#218 = FACE_BOUND ( 'NONE', #63, .T. ) ;
#219 = ORIENTED_EDGE ( 'NONE', *, *, #2, .F. ) ;
#220 = FACE_OUTER_BOUND ( 'NONE', #9, .T. ) ;
#221 = CARTESIAN_POINT ( 'NONE',  ( 1.316288464743861212E-13, -4.616918432785521081E-15, 37.69999999999999574 ) ) ;
#222 = CC_DESIGN_APPROVAL ( #64, ( #202 ) ) ;
#223 = ADVANCED_BREP_SHAPE_REPRESENTATION ( '63820', ( #163, #87, #191 ), #90 ) ;
ENDSEC;
END-ISO-10303-21;
