ISO-10303-21;
HEADER;
FILE_DESCRIPTION (( 'STEP AP203' ),
    '1' );
FILE_NAME ('63819.step',
    '2021-11-10T06:36:40',
    ( '' ),
    ( '' ),
    'SwSTEP 2.0',
    'SolidWorks 2019',
    '' );
FILE_SCHEMA (( 'CONFIG_CONTROL_DESIGN' ));
ENDSEC;

DATA;
#1 = AXIS2_PLACEMENT_3D ( 'NONE', #108, #88, #23 ) ;
#2 = MANIFOLD_SOLID_BREP ( 'Corps-Déplacer/Copier1[2]', #49 ) ;
#3 = AXIS2_PLACEMENT_3D ( 'NONE', #213, #44, #106 ) ;
#4 = COORDINATED_UNIVERSAL_TIME_OFFSET ( 1, 0, .AHEAD. ) ;
#5 = DIRECTION ( 'NONE',  ( 1.000000000000000000, 0.0000000000000000000, -3.423796334164752505E-15 ) ) ;
#6 = VERTEX_POINT ( 'NONE', #192 ) ;
#7 = CARTESIAN_POINT ( 'NONE',  ( 1.326762908760390423E-13, -4.653657836759941941E-15, 38.00000000000000000 ) ) ;
#8 = PERSON_AND_ORGANIZATION_ROLE ( 'creator' ) ;
#9 = FACE_OUTER_BOUND ( 'NONE', #191, .T. ) ;
#10 = DIRECTION ( 'NONE',  ( 1.000000000000000000, 0.0000000000000000000, -3.491481338843133355E-15 ) ) ;
#11 = EDGE_LOOP ( 'NONE', ( #109 ) ) ;
#12 = CARTESIAN_POINT ( 'NONE',  ( 1.326762908760390423E-13, 8.998558695971069014E-33, 38.00000000000000000 ) ) ;
#13 = PERSON_AND_ORGANIZATION ( #85, #34 ) ;
#14 = APPROVAL ( #62, 'UNSPECIFIED' ) ;
#15 = CIRCLE ( 'NONE', #77, 1.199999999999998845 ) ;
#16 = AXIS2_PLACEMENT_3D ( 'NONE', #158, #70, #122 ) ;
#17 = DATE_TIME_ROLE ( 'classification_date' ) ;
#18 = LOCAL_TIME ( 7, 36, 40.00000000000000000, #221 ) ;
#19 = EDGE_CURVE ( 'NONE', #52, #52, #209, .T. ) ;
#20 = APPROVAL_PERSON_ORGANIZATION ( #100, #121, #93 ) ;
#21 = CYLINDRICAL_SURFACE ( 'NONE', #3, 0.9499999999999996225 ) ;
#22 = PRODUCT ( '63819', '63819', '', ( #179 ) ) ;
#23 = DIRECTION ( 'NONE',  ( 0.0000000000000000000, 1.000000000000000000, 0.0000000000000000000 ) ) ;
#24 = CARTESIAN_POINT ( 'NONE',  ( 6.633814543801947064E-15, 0.0000000000000000000, 1.899999999999998357 ) ) ;
#25 = DIRECTION ( 'NONE',  ( 1.000000000000000000, 0.0000000000000000000, 0.0000000000000000000 ) ) ;
#26 = DIRECTION ( 'NONE',  ( 3.491481338843133355E-15, -0.0000000000000000000, 1.000000000000000000 ) ) ;
#27 =( NAMED_UNIT ( * ) SI_UNIT ( $, .STERADIAN. ) SOLID_ANGLE_UNIT ( ) );
#28 = CARTESIAN_POINT ( 'NONE',  ( 0.0000000000000000000, 0.0000000000000000000, 0.0000000000000000000 ) ) ;
#29 = SHAPE_DEFINITION_REPRESENTATION ( #144, #71 ) ;
#30 = DIRECTION ( 'NONE',  ( 1.000000000000000000, 0.0000000000000000000, -3.491481338843133750E-15 ) ) ;
#31 = ORIENTED_EDGE ( 'NONE', *, *, #220, .F. ) ;
#32 = COORDINATED_UNIVERSAL_TIME_OFFSET ( 1, 0, .AHEAD. ) ;
#33 = AXIS2_PLACEMENT_3D ( 'NONE', #46, #214, #78 ) ;
#34 = ORGANIZATION ( 'UNSPECIFIED', 'UNSPECIFIED', '' ) ;
#35 = PERSON_AND_ORGANIZATION ( #85, #34 ) ;
#36 = PERSON_AND_ORGANIZATION ( #85, #34 ) ;
#37 = PRODUCT_DEFINITION ( 'UNKNOWN', '', #42, #83 ) ;
#38 = APPLICATION_PROTOCOL_DEFINITION ( 'international standard', 'config_control_design', 1994, #206 ) ;
#39 = EDGE_LOOP ( 'NONE', ( #219 ) ) ;
#40 = AXIS2_PLACEMENT_3D ( 'NONE', #199, #150, #41 ) ;
#41 = DIRECTION ( 'NONE',  ( 0.0000000000000000000, 1.000000000000000000, 0.0000000000000000000 ) ) ;
#42 = PRODUCT_DEFINITION_FORMATION_WITH_SPECIFIED_SOURCE ( 'ANY', '', #22, .NOT_KNOWN. ) ;
#43 = CARTESIAN_POINT ( 'NONE',  ( 0.9500000000000060618, 0.0000000000000000000, 1.899999999999995026 ) ) ;
#44 = DIRECTION ( 'NONE',  ( 3.491481338843133355E-15, -0.0000000000000000000, 1.000000000000000000 ) ) ;
#45 = FACE_OUTER_BOUND ( 'NONE', #11, .T. ) ;
#46 = CARTESIAN_POINT ( 'NONE',  ( 6.633814543801952586E-15, -2.746645503629952126E-16, 1.899999999999999689 ) ) ;
#47 = DATE_AND_TIME ( #67, #135 ) ;
#48 = CC_DESIGN_DATE_AND_TIME_ASSIGNMENT ( #47, #111, ( #37 ) ) ;
#49 = CLOSED_SHELL ( 'NONE', ( #136, #201, #171 ) ) ;
#50 = TOROIDAL_SURFACE ( 'NONE', #68, 8.949999999999999289, 8.000000000000000000 ) ;
#51 = CC_DESIGN_PERSON_AND_ORGANIZATION_ASSIGNMENT ( #35, #114, ( #65 ) ) ;
#52 = VERTEX_POINT ( 'NONE', #138 ) ;
#53 = LOCAL_TIME ( 7, 36, 40.00000000000000000, #4 ) ;
#54 = FACE_OUTER_BOUND ( 'NONE', #184, .T. ) ;
#55 = DIRECTION ( 'NONE',  ( -3.491481338843133355E-15, 1.224646799147353207E-16, -1.000000000000000000 ) ) ;
#56 = CARTESIAN_POINT ( 'NONE',  ( 0.9499999999999999556, 0.0000000000000000000, -3.316907271900976688E-15 ) ) ;
#57 = DIRECTION ( 'NONE',  ( 0.0000000000000000000, 1.000000000000000000, 0.0000000000000000000 ) ) ;
#58 = CARTESIAN_POINT ( 'NONE',  ( 1.326762908760390423E-13, 1.199999999999994182, 38.00000000000000000 ) ) ;
#59 = CC_DESIGN_PERSON_AND_ORGANIZATION_ASSIGNMENT ( #13, #112, ( #42 ) ) ;
#60 = AXIS2_PLACEMENT_3D ( 'NONE', #180, #26, #94 ) ;
#61 = EDGE_LOOP ( 'NONE', ( #102 ) ) ;
#62 = APPROVAL_STATUS ( 'not_yet_approved' ) ;
#63 = CYLINDRICAL_SURFACE ( 'NONE', #178, 1.499999999999996447 ) ;
#64 = EDGE_LOOP ( 'NONE', ( #72 ) ) ;
#65 = SECURITY_CLASSIFICATION ( '', '', #99 ) ;
#66 = ADVANCED_FACE ( 'NONE', ( #139 ), #96, .F. ) ;
#67 = CALENDAR_DATE ( 2021, 10, 11 ) ;
#68 = AXIS2_PLACEMENT_3D ( 'NONE', #163, #168, #30 ) ;
#69 = AXIS2_PLACEMENT_3D ( 'NONE', #75, #127, #107 ) ;
#70 = DIRECTION ( 'NONE',  ( -3.491481338843133355E-15, 0.0000000000000000000, -1.000000000000000000 ) ) ;
#71 = ADVANCED_BREP_SHAPE_REPRESENTATION ( '63819', ( #84, #2, #125 ), #103 ) ;
#72 = ORIENTED_EDGE ( 'NONE', *, *, #87, .F. ) ;
#73 = CARTESIAN_POINT ( 'NONE',  ( 0.0000000000000000000, 0.0000000000000000000, 0.0000000000000000000 ) ) ;
#74 = ADVANCED_FACE ( 'NONE', ( #195, #45 ), #50, .F. ) ;
#75 = CARTESIAN_POINT ( 'NONE',  ( 6.633814543801952586E-15, -2.746645503629952126E-16, 1.899999999999999689 ) ) ;
#76 = DIRECTION ( 'NONE',  ( 0.0000000000000000000, 0.0000000000000000000, 1.000000000000000000 ) ) ;
#77 = AXIS2_PLACEMENT_3D ( 'NONE', #7, #95, #57 ) ;
#78 = DIRECTION ( 'NONE',  ( -4.275831445896958607E-31, -1.000000000000000000, -1.224646799147353207E-16 ) ) ;
#79 = ORIENTED_EDGE ( 'NONE', *, *, #156, .F. ) ;
#80 = DIRECTION ( 'NONE',  ( -3.491481338843133355E-15, 1.224646799147353207E-16, -1.000000000000000000 ) ) ;
#81 = ADVANCED_FACE ( 'NONE', ( #130, #212 ), #63, .T. ) ;
#82 = DATE_AND_TIME ( #128, #189 ) ;
#83 = DESIGN_CONTEXT ( 'detailed design', #206, 'design' ) ;
#84 = MANIFOLD_SOLID_BREP ( 'Corps-Déplacer/Copier1[1]', #115 ) ;
#85 = PERSON ( 'UNSPECIFIED', 'UNSPECIFIED', 'UNSPECIFIED', ('UNSPECIFIED'), ('UNSPECIFIED'), ('UNSPECIFIED') ) ;
#86 = DATE_AND_TIME ( #133, #53 ) ;
#87 = EDGE_CURVE ( 'NONE', #211, #211, #15, .T. ) ;
#88 = DIRECTION ( 'NONE',  ( -3.491481338843133355E-15, 1.224646799147353207E-16, -1.000000000000000000 ) ) ;
#89 = CC_DESIGN_APPROVAL ( #14, ( #65 ) ) ;
#90 = DATE_AND_TIME ( #177, #161 ) ;
#91 = DIRECTION ( 'NONE',  ( 3.491481338843133355E-15, -0.0000000000000000000, 1.000000000000000000 ) ) ;
#92 = EDGE_CURVE ( 'NONE', #6, #6, #134, .T. ) ;
#93 = APPROVAL_ROLE ( '' ) ;
#94 = DIRECTION ( 'NONE',  ( 1.000000000000000000, 0.0000000000000000000, -3.423796334164752505E-15 ) ) ;
#95 = DIRECTION ( 'NONE',  ( -3.491481338843133355E-15, 1.224646799147353207E-16, -1.000000000000000000 ) ) ;
#96 = PLANE ( 'NONE',  #69 ) ;
#97 = DIRECTION ( 'NONE',  ( -4.275831445896958607E-31, -1.000000000000000000, -1.224646799147353207E-16 ) ) ;
#98 = APPROVAL_DATE_TIME ( #204, #132 ) ;
#99 = SECURITY_CLASSIFICATION_LEVEL ( 'unclassified' ) ;
#100 = PERSON_AND_ORGANIZATION ( #85, #34 ) ;
#101 = APPROVAL_STATUS ( 'not_yet_approved' ) ;
#102 = ORIENTED_EDGE ( 'NONE', *, *, #19, .F. ) ;
#103 =( GEOMETRIC_REPRESENTATION_CONTEXT ( 3 ) GLOBAL_UNCERTAINTY_ASSIGNED_CONTEXT ( ( #202 ) ) GLOBAL_UNIT_ASSIGNED_CONTEXT ( ( #119, #181, #27 ) ) REPRESENTATION_CONTEXT ( 'NONE', 'WORKASPACE' ) );
#104 = CC_DESIGN_PERSON_AND_ORGANIZATION_ASSIGNMENT ( #36, #196, ( #22 ) ) ;
#105 = DIRECTION ( 'NONE',  ( 3.491481338843133355E-15, -0.0000000000000000000, 1.000000000000000000 ) ) ;
#106 = DIRECTION ( 'NONE',  ( 1.000000000000000000, 0.0000000000000000000, -3.491481338843133355E-15 ) ) ;
#107 = DIRECTION ( 'NONE',  ( -4.275831445896958607E-31, -1.000000000000000000, -1.224646799147353207E-16 ) ) ;
#108 = CARTESIAN_POINT ( 'NONE',  ( 1.326762908760390423E-13, -4.653657836759941941E-15, 38.00000000000000000 ) ) ;
#109 = ORIENTED_EDGE ( 'NONE', *, *, #220, .T. ) ;
#110 = EDGE_LOOP ( 'NONE', ( #193 ) ) ;
#111 = DATE_TIME_ROLE ( 'creation_date' ) ;
#112 = PERSON_AND_ORGANIZATION_ROLE ( 'creator' ) ;
#113 = CC_DESIGN_PERSON_AND_ORGANIZATION_ASSIGNMENT ( #187, #208, ( #42 ) ) ;
#114 = PERSON_AND_ORGANIZATION_ROLE ( 'classification_officer' ) ;
#115 = CLOSED_SHELL ( 'NONE', ( #81, #186, #174, #74, #66 ) ) ;
#116 = EDGE_CURVE ( 'NONE', #137, #137, #172, .T. ) ;
#117 = CIRCLE ( 'NONE', #16, 1.499999999999996447 ) ;
#118 = CARTESIAN_POINT ( 'NONE',  ( 0.0000000000000000000, 0.0000000000000000000, 0.0000000000000000000 ) ) ;
#119 =( LENGTH_UNIT ( ) NAMED_UNIT ( * ) SI_UNIT ( .MILLI., .METRE. ) );
#120 = EDGE_LOOP ( 'NONE', ( #79 ) ) ;
#121 = APPROVAL ( #101, 'UNSPECIFIED' ) ;
#122 = DIRECTION ( 'NONE',  ( -1.000000000000000000, 0.0000000000000000000, 3.469446951953622472E-15 ) ) ;
#123 = ORIENTED_EDGE ( 'NONE', *, *, #92, .F. ) ;
#124 = AXIS2_PLACEMENT_3D ( 'NONE', #73, #105, #10 ) ;
#125 = AXIS2_PLACEMENT_3D ( 'NONE', #118, #76, #25 ) ;
#126 = VERTEX_POINT ( 'NONE', #43 ) ;
#127 = DIRECTION ( 'NONE',  ( 3.491481338843133355E-15, -1.224646799147353207E-16, 1.000000000000000000 ) ) ;
#128 = CALENDAR_DATE ( 2021, 10, 11 ) ;
#129 = PLANE ( 'NONE',  #188 ) ;
#130 = FACE_OUTER_BOUND ( 'NONE', #141, .T. ) ;
#131 = PERSON_AND_ORGANIZATION ( #85, #34 ) ;
#132 = APPROVAL ( #205, 'UNSPECIFIED' ) ;
#133 = CALENDAR_DATE ( 2021, 10, 11 ) ;
#134 = CIRCLE ( 'NONE', #40, 1.499999999999998446 ) ;
#135 = LOCAL_TIME ( 7, 36, 40.00000000000000000, #215 ) ;
#136 = ADVANCED_FACE ( 'NONE', ( #9 ), #169, .T. ) ;
#137 = VERTEX_POINT ( 'NONE', #56 ) ;
#138 = CARTESIAN_POINT ( 'NONE',  ( 0.9500000000000060618, 0.0000000000000000000, 1.899999999999995026 ) ) ;
#139 = FACE_OUTER_BOUND ( 'NONE', #120, .T. ) ;
#140 = FACE_BOUND ( 'NONE', #110, .T. ) ;
#141 = EDGE_LOOP ( 'NONE', ( #218 ) ) ;
#142 = APPLICATION_CONTEXT ( 'configuration controlled 3d designs of mechanical parts and assemblies' ) ;
#143 = FACE_OUTER_BOUND ( 'NONE', #145, .T. ) ;
#144 = PRODUCT_DEFINITION_SHAPE ( 'NONE', 'NONE',  #37 ) ;
#145 = EDGE_LOOP ( 'NONE', ( #123 ) ) ;
#146 = AXIS2_PLACEMENT_3D ( 'NONE', #12, #80, #217 ) ;
#147 = CC_DESIGN_APPROVAL ( #132, ( #42 ) ) ;
#148 = APPLICATION_PROTOCOL_DEFINITION ( 'international standard', 'config_control_design', 1994, #142 ) ;
#149 = FACE_OUTER_BOUND ( 'NONE', #39, .T. ) ;
#150 = DIRECTION ( 'NONE',  ( -3.491481338843133355E-15, 1.224646799147353207E-16, -1.000000000000000000 ) ) ;
#151 = PERSON_AND_ORGANIZATION ( #85, #34 ) ;
#152 = APPROVAL_ROLE ( '' ) ;
#153 = DIRECTION ( 'NONE',  ( 3.491481338843133355E-15, -1.224646799147353207E-16, 1.000000000000000000 ) ) ;
#154 = CC_DESIGN_DATE_AND_TIME_ASSIGNMENT ( #86, #17, ( #65 ) ) ;
#155 = APPROVAL_PERSON_ORGANIZATION ( #131, #132, #152 ) ;
#156 = EDGE_CURVE ( 'NONE', #126, #126, #157, .T. ) ;
#157 = CIRCLE ( 'NONE', #60, 0.9499999999999995115 ) ;
#158 = CARTESIAN_POINT ( 'NONE',  ( 1.681164733771314887E-14, 0.0000000000000000000, 4.815047169429671037 ) ) ;
#159 = VERTEX_POINT ( 'NONE', #167 ) ;
#160 = ORIENTED_EDGE ( 'NONE', *, *, #19, .T. ) ;
#161 = LOCAL_TIME ( 7, 36, 40.00000000000000000, #183 ) ;
#162 = APPROVAL_DATE_TIME ( #90, #121 ) ;
#163 = CARTESIAN_POINT ( 'NONE',  ( 6.633814543801951008E-15, 0.0000000000000000000, 1.899999999999999245 ) ) ;
#164 = PERSON_AND_ORGANIZATION ( #85, #34 ) ;
#165 = EDGE_LOOP ( 'NONE', ( #216 ) ) ;
#166 = CC_DESIGN_PERSON_AND_ORGANIZATION_ASSIGNMENT ( #164, #8, ( #37 ) ) ;
#167 = CARTESIAN_POINT ( 'NONE',  ( -1.499999999999979350, 0.0000000000000000000, 4.815047169429676366 ) ) ;
#168 = DIRECTION ( 'NONE',  ( 3.491481338843133355E-15, -0.0000000000000000000, 1.000000000000000000 ) ) ;
#169 = PLANE ( 'NONE',  #33 ) ;
#170 = PLANE ( 'NONE',  #146 ) ;
#171 = ADVANCED_FACE ( 'NONE', ( #149 ), #129, .F. ) ;
#172 = CIRCLE ( 'NONE', #124, 0.9499999999999999556 ) ;
#173 = APPROVAL_PERSON_ORGANIZATION ( #151, #14, #200 ) ;
#174 = ADVANCED_FACE ( 'NONE', ( #222 ), #170, .F. ) ;
#175 = CC_DESIGN_APPROVAL ( #121, ( #37 ) ) ;
#176 = ORIENTED_EDGE ( 'NONE', *, *, #116, .T. ) ;
#177 = CALENDAR_DATE ( 2021, 10, 11 ) ;
#178 = AXIS2_PLACEMENT_3D ( 'NONE', #28, #55, #182 ) ;
#179 = MECHANICAL_CONTEXT ( 'NONE', #142, 'mechanical' ) ;
#180 = CARTESIAN_POINT ( 'NONE',  ( 6.633814543801947064E-15, 0.0000000000000000000, 1.899999999999998357 ) ) ;
#181 =( NAMED_UNIT ( * ) PLANE_ANGLE_UNIT ( ) SI_UNIT ( $, .RADIAN. ) );
#182 = DIRECTION ( 'NONE',  ( 4.275831445896958607E-31, 1.000000000000000000, 1.224646799147352961E-16 ) ) ;
#183 = COORDINATED_UNIVERSAL_TIME_OFFSET ( 1, 0, .AHEAD. ) ;
#184 = EDGE_LOOP ( 'NONE', ( #176 ) ) ;
#185 = EDGE_LOOP ( 'NONE', ( #31 ) ) ;
#186 = ADVANCED_FACE ( 'NONE', ( #143, #140 ), #190, .T. ) ;
#187 = PERSON_AND_ORGANIZATION ( #85, #34 ) ;
#188 = AXIS2_PLACEMENT_3D ( 'NONE', #197, #153, #97 ) ;
#189 = LOCAL_TIME ( 7, 36, 40.00000000000000000, #32 ) ;
#190 = CONICAL_SURFACE ( 'NONE', #1, 1.199999999999998845, 0.7853981633974450594 ) ;
#191 = EDGE_LOOP ( 'NONE', ( #160 ) ) ;
#192 = CARTESIAN_POINT ( 'NONE',  ( 1.316288464743861212E-13, 1.499999999999994005, 37.69999999999999574 ) ) ;
#193 = ORIENTED_EDGE ( 'NONE', *, *, #87, .T. ) ;
#194 = FACE_OUTER_BOUND ( 'NONE', #61, .T. ) ;
#195 = FACE_OUTER_BOUND ( 'NONE', #165, .T. ) ;
#196 = PERSON_AND_ORGANIZATION_ROLE ( 'design_owner' ) ;
#197 = CARTESIAN_POINT ( 'NONE',  ( -6.413803915257457113E-31, 2.249659577954772199E-32, -1.836986451539393076E-16 ) ) ;
#198 = CALENDAR_DATE ( 2021, 10, 11 ) ;
#199 = CARTESIAN_POINT ( 'NONE',  ( 1.316288464743861212E-13, -4.616918432785521081E-15, 37.69999999999999574 ) ) ;
#200 = APPROVAL_ROLE ( '' ) ;
#201 = ADVANCED_FACE ( 'NONE', ( #54, #194 ), #21, .T. ) ;
#202 = UNCERTAINTY_MEASURE_WITH_UNIT (LENGTH_MEASURE( 1.000000000000000082E-05 ), #119, 'distance_accuracy_value', 'NONE');
#203 = APPROVAL_DATE_TIME ( #82, #14 ) ;
#204 = DATE_AND_TIME ( #198, #18 ) ;
#205 = APPROVAL_STATUS ( 'not_yet_approved' ) ;
#206 = APPLICATION_CONTEXT ( 'configuration controlled 3d designs of mechanical parts and assemblies' ) ;
#207 = PRODUCT_RELATED_PRODUCT_CATEGORY ( 'detail', '', ( #22 ) ) ;
#208 = PERSON_AND_ORGANIZATION_ROLE ( 'design_supplier' ) ;
#209 = CIRCLE ( 'NONE', #210, 0.9499999999999995115 ) ;
#210 = AXIS2_PLACEMENT_3D ( 'NONE', #24, #91, #5 ) ;
#211 = VERTEX_POINT ( 'NONE', #58 ) ;
#212 = FACE_OUTER_BOUND ( 'NONE', #185, .T. ) ;
#213 = CARTESIAN_POINT ( 'NONE',  ( 0.0000000000000000000, 0.0000000000000000000, 0.0000000000000000000 ) ) ;
#214 = DIRECTION ( 'NONE',  ( 3.491481338843133355E-15, -1.224646799147353207E-16, 1.000000000000000000 ) ) ;
#215 = COORDINATED_UNIVERSAL_TIME_OFFSET ( 1, 0, .AHEAD. ) ;
#216 = ORIENTED_EDGE ( 'NONE', *, *, #156, .T. ) ;
#217 = DIRECTION ( 'NONE',  ( 4.275831445896958607E-31, 1.000000000000000000, 1.224646799147353207E-16 ) ) ;
#218 = ORIENTED_EDGE ( 'NONE', *, *, #92, .T. ) ;
#219 = ORIENTED_EDGE ( 'NONE', *, *, #116, .F. ) ;
#220 = EDGE_CURVE ( 'NONE', #159, #159, #117, .T. ) ;
#221 = COORDINATED_UNIVERSAL_TIME_OFFSET ( 1, 0, .AHEAD. ) ;
#222 = FACE_OUTER_BOUND ( 'NONE', #64, .T. ) ;
#223 = CC_DESIGN_SECURITY_CLASSIFICATION ( #65, ( #42 ) ) ;
ENDSEC;
END-ISO-10303-21;
