ISO-10303-21;
HEADER;
FILE_DESCRIPTION (( 'STEP AP203' ),
    '1' );
FILE_NAME ('63818.step',
    '2021-11-10T06:36:39',
    ( '' ),
    ( '' ),
    'SwSTEP 2.0',
    'SolidWorks 2019',
    '' );
FILE_SCHEMA (( 'CONFIG_CONTROL_DESIGN' ));
ENDSEC;

DATA;
#1 = EDGE_LOOP ( 'NONE', ( #120 ) ) ;
#2 = AXIS2_PLACEMENT_3D ( 'NONE', #193, #208, #143 ) ;
#3 = FACE_OUTER_BOUND ( 'NONE', #1, .T. ) ;
#4 = PERSON_AND_ORGANIZATION ( #129, #17 ) ;
#5 = APPLICATION_PROTOCOL_DEFINITION ( 'international standard', 'config_control_design', 1994, #58 ) ;
#6 = CIRCLE ( 'NONE', #168, 1.199999999999998845 ) ;
#7 = APPROVAL_STATUS ( 'not_yet_approved' ) ;
#8 = CARTESIAN_POINT ( 'NONE',  ( 0.9250000000000069278, 0.0000000000000000000, 1.849999999999995204 ) ) ;
#9 = AXIS2_PLACEMENT_3D ( 'NONE', #30, #20, #212 ) ;
#10 = APPROVAL_DATE_TIME ( #147, #195 ) ;
#11 = SHAPE_DEFINITION_REPRESENTATION ( #165, #57 ) ;
#12 = AXIS2_PLACEMENT_3D ( 'NONE', #35, #24, #55 ) ;
#13 = ORIENTED_EDGE ( 'NONE', *, *, #211, .T. ) ;
#14 = ORIENTED_EDGE ( 'NONE', *, *, #19, .T. ) ;
#15 = EDGE_LOOP ( 'NONE', ( #216 ) ) ;
#16 = CYLINDRICAL_SURFACE ( 'NONE', #219, 0.9250000000000002665 ) ;
#17 = ORGANIZATION ( 'UNSPECIFIED', 'UNSPECIFIED', '' ) ;
#18 = PLANE ( 'NONE',  #118 ) ;
#19 = EDGE_CURVE ( 'NONE', #39, #39, #178, .T. ) ;
#20 = DIRECTION ( 'NONE',  ( 3.491481338843133355E-15, -1.224646799147353207E-16, 1.000000000000000000 ) ) ;
#21 = ADVANCED_FACE ( 'NONE', ( #3, #63 ), #114, .T. ) ;
#22 = VERTEX_POINT ( 'NONE', #126 ) ;
#23 = VERTEX_POINT ( 'NONE', #104 ) ;
#24 = DIRECTION ( 'NONE',  ( -3.491481338843133355E-15, 1.224646799147353207E-16, -1.000000000000000000 ) ) ;
#25 = CIRCLE ( 'NONE', #101, 0.9250000000000004885 ) ;
#26 = DATE_TIME_ROLE ( 'creation_date' ) ;
#27 = DIRECTION ( 'NONE',  ( 3.491481338843133355E-15, -1.224646799147353207E-16, 1.000000000000000000 ) ) ;
#28 = CC_DESIGN_PERSON_AND_ORGANIZATION_ASSIGNMENT ( #200, #59, ( #49 ) ) ;
#29 = CARTESIAN_POINT ( 'NONE',  ( 6.459240476859791974E-15, 0.0000000000000000000, 1.849999999999998535 ) ) ;
#30 = CARTESIAN_POINT ( 'NONE',  ( 6.459240476859796707E-15, -2.674365358797584835E-16, 1.850000000000000089 ) ) ;
#31 = ADVANCED_FACE ( 'NONE', ( #50 ), #18, .F. ) ;
#32 = DIRECTION ( 'NONE',  ( 3.491481338843133355E-15, -1.224646799147353207E-16, 1.000000000000000000 ) ) ;
#33 = EDGE_LOOP ( 'NONE', ( #60 ) ) ;
#34 = PERSON_AND_ORGANIZATION_ROLE ( 'creator' ) ;
#35 = CARTESIAN_POINT ( 'NONE',  ( 1.316288464743861212E-13, -4.616918432785521081E-15, 37.69999999999999574 ) ) ;
#36 = EDGE_LOOP ( 'NONE', ( #131 ) ) ;
#37 = LOCAL_TIME ( 7, 36, 39.00000000000000000, #215 ) ;
#38 = DIRECTION ( 'NONE',  ( 3.491481338843133355E-15, -0.0000000000000000000, 1.000000000000000000 ) ) ;
#39 = VERTEX_POINT ( 'NONE', #8 ) ;
#40 = MANIFOLD_SOLID_BREP ( 'Corps-Déplacer/Copier1[1]', #214 ) ;
#41 = ADVANCED_FACE ( 'NONE', ( #222, #189 ), #138, .T. ) ;
#42 = CALENDAR_DATE ( 2021, 10, 11 ) ;
#43 = MANIFOLD_SOLID_BREP ( 'Corps-Déplacer/Copier1[2]', #186 ) ;
#44 = CALENDAR_DATE ( 2021, 10, 11 ) ;
#45 = EDGE_LOOP ( 'NONE', ( #198 ) ) ;
#46 = DIRECTION ( 'NONE',  ( 3.491481338843133355E-15, -0.0000000000000000000, 1.000000000000000000 ) ) ;
#47 = DIRECTION ( 'NONE',  ( 1.000000000000000000, 0.0000000000000000000, -3.491481338843133355E-15 ) ) ;
#48 = AXIS2_PLACEMENT_3D ( 'NONE', #207, #188, #47 ) ;
#49 = SECURITY_CLASSIFICATION ( '', '', #75 ) ;
#50 = FACE_OUTER_BOUND ( 'NONE', #152, .T. ) ;
#51 = CARTESIAN_POINT ( 'NONE',  ( 1.326762908760390423E-13, -4.653657836759941941E-15, 38.00000000000000000 ) ) ;
#52 = CC_DESIGN_PERSON_AND_ORGANIZATION_ASSIGNMENT ( #145, #109, ( #205 ) ) ;
#53 =( NAMED_UNIT ( * ) PLANE_ANGLE_UNIT ( ) SI_UNIT ( $, .RADIAN. ) );
#54 = AXIS2_PLACEMENT_3D ( 'NONE', #136, #32, #98 ) ;
#55 = DIRECTION ( 'NONE',  ( 0.0000000000000000000, 1.000000000000000000, 0.0000000000000000000 ) ) ;
#56 = DIRECTION ( 'NONE',  ( -3.491481338843133355E-15, 1.224646799147353207E-16, -1.000000000000000000 ) ) ;
#57 = ADVANCED_BREP_SHAPE_REPRESENTATION ( '63818', ( #40, #43, #2 ), #93 ) ;
#58 = APPLICATION_CONTEXT ( 'configuration controlled 3d designs of mechanical parts and assemblies' ) ;
#59 = PERSON_AND_ORGANIZATION_ROLE ( 'classification_officer' ) ;
#60 = ORIENTED_EDGE ( 'NONE', *, *, #77, .F. ) ;
#61 = DIRECTION ( 'NONE',  ( -3.491481338843133355E-15, 1.224646799147353207E-16, -1.000000000000000000 ) ) ;
#62 = EDGE_LOOP ( 'NONE', ( #100 ) ) ;
#63 = FACE_BOUND ( 'NONE', #171, .T. ) ;
#64 = LOCAL_TIME ( 7, 36, 39.00000000000000000, #115 ) ;
#65 = EDGE_LOOP ( 'NONE', ( #116 ) ) ;
#66 = CC_DESIGN_PERSON_AND_ORGANIZATION_ASSIGNMENT ( #173, #144, ( #95 ) ) ;
#67 = DATE_AND_TIME ( #142, #90 ) ;
#68 = CIRCLE ( 'NONE', #12, 1.499999999999998446 ) ;
#69 = FACE_OUTER_BOUND ( 'NONE', #62, .T. ) ;
#70 =( LENGTH_UNIT ( ) NAMED_UNIT ( * ) SI_UNIT ( .MILLI., .METRE. ) );
#71 = LOCAL_TIME ( 7, 36, 39.00000000000000000, #91 ) ;
#72 = PERSON_AND_ORGANIZATION ( #129, #17 ) ;
#73 = CC_DESIGN_APPROVAL ( #195, ( #49 ) ) ;
#74 = DATE_AND_TIME ( #132, #71 ) ;
#75 = SECURITY_CLASSIFICATION_LEVEL ( 'unclassified' ) ;
#76 = ADVANCED_FACE ( 'NONE', ( #139, #153 ), #92, .F. ) ;
#77 = EDGE_CURVE ( 'NONE', #88, #88, #25, .T. ) ;
#78 = ADVANCED_FACE ( 'NONE', ( #96 ), #81, .T. ) ;
#79 = FACE_OUTER_BOUND ( 'NONE', #45, .T. ) ;
#80 = DIRECTION ( 'NONE',  ( -3.491481338843133355E-15, 1.224646799147353207E-16, -1.000000000000000000 ) ) ;
#81 = PLANE ( 'NONE',  #54 ) ;
#82 = EDGE_LOOP ( 'NONE', ( #103 ) ) ;
#83 = LOCAL_TIME ( 7, 36, 39.00000000000000000, #180 ) ;
#84 = DIRECTION ( 'NONE',  ( 0.0000000000000000000, 1.000000000000000000, 0.0000000000000000000 ) ) ;
#85 = CC_DESIGN_DATE_AND_TIME_ASSIGNMENT ( #74, #26, ( #221 ) ) ;
#86 = DIRECTION ( 'NONE',  ( -3.491481338843133355E-15, 0.0000000000000000000, -1.000000000000000000 ) ) ;
#87 = PERSON_AND_ORGANIZATION ( #129, #17 ) ;
#88 = VERTEX_POINT ( 'NONE', #174 ) ;
#89 = COORDINATED_UNIVERSAL_TIME_OFFSET ( 1, 0, .AHEAD. ) ;
#90 = LOCAL_TIME ( 7, 36, 39.00000000000000000, #89 ) ;
#91 = COORDINATED_UNIVERSAL_TIME_OFFSET ( 1, 0, .AHEAD. ) ;
#92 = TOROIDAL_SURFACE ( 'NONE', #48, 8.925000000000000711, 8.000000000000000000 ) ;
#93 =( GEOMETRIC_REPRESENTATION_CONTEXT ( 3 ) GLOBAL_UNCERTAINTY_ASSIGNED_CONTEXT ( ( #190 ) ) GLOBAL_UNIT_ASSIGNED_CONTEXT ( ( #70, #53, #159 ) ) REPRESENTATION_CONTEXT ( 'NONE', 'WORKASPACE' ) );
#94 = EDGE_LOOP ( 'NONE', ( #13 ) ) ;
#95 = PRODUCT ( '63818', '63818', '', ( #176 ) ) ;
#96 = FACE_OUTER_BOUND ( 'NONE', #36, .T. ) ;
#97 = AXIS2_PLACEMENT_3D ( 'NONE', #202, #223, #157 ) ;
#98 = DIRECTION ( 'NONE',  ( -4.275831445896958607E-31, -1.000000000000000000, -1.224646799147353207E-16 ) ) ;
#99 = DIRECTION ( 'NONE',  ( 0.0000000000000000000, 1.000000000000000000, 0.0000000000000000000 ) ) ;
#100 = ORIENTED_EDGE ( 'NONE', *, *, #110, .F. ) ;
#101 = AXIS2_PLACEMENT_3D ( 'NONE', #29, #46, #206 ) ;
#102 = ADVANCED_FACE ( 'NONE', ( #135, #156 ), #16, .T. ) ;
#103 = ORIENTED_EDGE ( 'NONE', *, *, #182, .F. ) ;
#104 = CARTESIAN_POINT ( 'NONE',  ( -1.499999999999979350, 0.0000000000000000000, 4.828149593287744956 ) ) ;
#105 = DIRECTION ( 'NONE',  ( 1.000000000000000000, 0.0000000000000000000, -3.491481338843133355E-15 ) ) ;
#106 = DIRECTION ( 'NONE',  ( -1.000000000000000000, 0.0000000000000000000, 3.469446951953622472E-15 ) ) ;
#107 = CARTESIAN_POINT ( 'NONE',  ( 1.326762908760390423E-13, 8.998558695971069014E-33, 38.00000000000000000 ) ) ;
#108 = APPLICATION_PROTOCOL_DEFINITION ( 'international standard', 'config_control_design', 1994, #146 ) ;
#109 = PERSON_AND_ORGANIZATION_ROLE ( 'creator' ) ;
#110 = EDGE_CURVE ( 'NONE', #127, #127, #6, .T. ) ;
#111 = AXIS2_PLACEMENT_3D ( 'NONE', #107, #56, #160 ) ;
#112 = DATE_TIME_ROLE ( 'classification_date' ) ;
#113 = PERSON_AND_ORGANIZATION_ROLE ( 'design_supplier' ) ;
#114 = CONICAL_SURFACE ( 'NONE', #209, 1.199999999999998845, 0.7853981633974450594 ) ;
#115 = COORDINATED_UNIVERSAL_TIME_OFFSET ( 1, 0, .AHEAD. ) ;
#116 = ORIENTED_EDGE ( 'NONE', *, *, #154, .T. ) ;
#117 = DIRECTION ( 'NONE',  ( 1.000000000000000000, 0.0000000000000000000, -3.491481338843133355E-15 ) ) ;
#118 = AXIS2_PLACEMENT_3D ( 'NONE', #203, #27, #119 ) ;
#119 = DIRECTION ( 'NONE',  ( -4.275831445896958607E-31, -1.000000000000000000, -1.224646799147353207E-16 ) ) ;
#120 = ORIENTED_EDGE ( 'NONE', *, *, #154, .F. ) ;
#121 = DESIGN_CONTEXT ( 'detailed design', #58, 'design' ) ;
#122 = DIRECTION ( 'NONE',  ( 4.275831445896958607E-31, 1.000000000000000000, 1.224646799147352961E-16 ) ) ;
#123 = CC_DESIGN_APPROVAL ( #140, ( #205 ) ) ;
#124 = PLANE ( 'NONE',  #111 ) ;
#125 = APPROVAL ( #7, 'UNSPECIFIED' ) ;
#126 = CARTESIAN_POINT ( 'NONE',  ( 1.316288464743861212E-13, 1.499999999999994005, 37.69999999999999574 ) ) ;
#127 = VERTEX_POINT ( 'NONE', #194 ) ;
#128 = DATE_AND_TIME ( #42, #83 ) ;
#129 = PERSON ( 'UNSPECIFIED', 'UNSPECIFIED', 'UNSPECIFIED', ('UNSPECIFIED'), ('UNSPECIFIED'), ('UNSPECIFIED') ) ;
#130 = CIRCLE ( 'NONE', #163, 0.9250000000000000444 ) ;
#131 = ORIENTED_EDGE ( 'NONE', *, *, #77, .T. ) ;
#132 = CALENDAR_DATE ( 2021, 10, 11 ) ;
#133 = CIRCLE ( 'NONE', #196, 1.499999999999996447 ) ;
#134 = APPROVAL_PERSON_ORGANIZATION ( #217, #195, #149 ) ;
#135 = FACE_OUTER_BOUND ( 'NONE', #94, .T. ) ;
#136 = CARTESIAN_POINT ( 'NONE',  ( 6.459240476859796707E-15, -2.674365358797584835E-16, 1.850000000000000089 ) ) ;
#137 = PLANE ( 'NONE',  #9 ) ;
#138 = CYLINDRICAL_SURFACE ( 'NONE', #201, 1.499999999999996447 ) ;
#139 = FACE_OUTER_BOUND ( 'NONE', #167, .T. ) ;
#140 = APPROVAL ( #218, 'UNSPECIFIED' ) ;
#141 = APPROVAL_DATE_TIME ( #67, #125 ) ;
#142 = CALENDAR_DATE ( 2021, 10, 11 ) ;
#143 = DIRECTION ( 'NONE',  ( 1.000000000000000000, 0.0000000000000000000, 0.0000000000000000000 ) ) ;
#144 = PERSON_AND_ORGANIZATION_ROLE ( 'design_owner' ) ;
#145 = PERSON_AND_ORGANIZATION ( #129, #17 ) ;
#146 = APPLICATION_CONTEXT ( 'configuration controlled 3d designs of mechanical parts and assemblies' ) ;
#147 = DATE_AND_TIME ( #183, #64 ) ;
#148 = DATE_AND_TIME ( #44, #37 ) ;
#149 = APPROVAL_ROLE ( '' ) ;
#150 = ADVANCED_FACE ( 'NONE', ( #79 ), #137, .F. ) ;
#151 = CC_DESIGN_APPROVAL ( #125, ( #221 ) ) ;
#152 = EDGE_LOOP ( 'NONE', ( #204 ) ) ;
#153 = FACE_OUTER_BOUND ( 'NONE', #15, .T. ) ;
#154 = EDGE_CURVE ( 'NONE', #22, #22, #68, .T. ) ;
#155 = CC_DESIGN_DATE_AND_TIME_ASSIGNMENT ( #128, #112, ( #49 ) ) ;
#156 = FACE_OUTER_BOUND ( 'NONE', #33, .T. ) ;
#157 = DIRECTION ( 'NONE',  ( 1.000000000000000000, 0.0000000000000000000, -3.516331370223255758E-15 ) ) ;
#158 = CARTESIAN_POINT ( 'NONE',  ( 0.0000000000000000000, 0.0000000000000000000, 0.0000000000000000000 ) ) ;
#159 =( NAMED_UNIT ( * ) SI_UNIT ( $, .STERADIAN. ) SOLID_ANGLE_UNIT ( ) );
#160 = DIRECTION ( 'NONE',  ( 4.275831445896958607E-31, 1.000000000000000000, 1.224646799147353207E-16 ) ) ;
#161 = CARTESIAN_POINT ( 'NONE',  ( 1.685739420610720573E-14, 0.0000000000000000000, 4.828149593287739627 ) ) ;
#162 = APPROVAL_ROLE ( '' ) ;
#163 = AXIS2_PLACEMENT_3D ( 'NONE', #175, #38, #105 ) ;
#164 = PERSON_AND_ORGANIZATION ( #129, #17 ) ;
#165 = PRODUCT_DEFINITION_SHAPE ( 'NONE', 'NONE',  #221 ) ;
#166 = CC_DESIGN_PERSON_AND_ORGANIZATION_ASSIGNMENT ( #4, #34, ( #221 ) ) ;
#167 = EDGE_LOOP ( 'NONE', ( #14 ) ) ;
#168 = AXIS2_PLACEMENT_3D ( 'NONE', #185, #80, #99 ) ;
#169 = CC_DESIGN_SECURITY_CLASSIFICATION ( #49, ( #205 ) ) ;
#170 = CARTESIAN_POINT ( 'NONE',  ( 0.0000000000000000000, 0.0000000000000000000, 0.0000000000000000000 ) ) ;
#171 = EDGE_LOOP ( 'NONE', ( #184 ) ) ;
#172 = DIRECTION ( 'NONE',  ( -3.491481338843133355E-15, 1.224646799147353207E-16, -1.000000000000000000 ) ) ;
#173 = PERSON_AND_ORGANIZATION ( #129, #17 ) ;
#174 = CARTESIAN_POINT ( 'NONE',  ( 0.9250000000000069278, 0.0000000000000000000, 1.849999999999995204 ) ) ;
#175 = CARTESIAN_POINT ( 'NONE',  ( 0.0000000000000000000, 0.0000000000000000000, 0.0000000000000000000 ) ) ;
#176 = MECHANICAL_CONTEXT ( 'NONE', #146, 'mechanical' ) ;
#177 = CARTESIAN_POINT ( 'NONE',  ( 0.9250000000000000444, 0.0000000000000000000, -3.229620238429898354E-15 ) ) ;
#178 = CIRCLE ( 'NONE', #97, 0.9250000000000004885 ) ;
#179 = CC_DESIGN_PERSON_AND_ORGANIZATION_ASSIGNMENT ( #164, #113, ( #205 ) ) ;
#180 = COORDINATED_UNIVERSAL_TIME_OFFSET ( 1, 0, .AHEAD. ) ;
#181 = APPROVAL_DATE_TIME ( #148, #140 ) ;
#182 = EDGE_CURVE ( 'NONE', #23, #23, #133, .T. ) ;
#183 = CALENDAR_DATE ( 2021, 10, 11 ) ;
#184 = ORIENTED_EDGE ( 'NONE', *, *, #110, .T. ) ;
#185 = CARTESIAN_POINT ( 'NONE',  ( 1.326762908760390423E-13, -4.653657836759941941E-15, 38.00000000000000000 ) ) ;
#186 = CLOSED_SHELL ( 'NONE', ( #78, #102, #31 ) ) ;
#187 = DIRECTION ( 'NONE',  ( 3.491481338843133355E-15, -0.0000000000000000000, 1.000000000000000000 ) ) ;
#188 = DIRECTION ( 'NONE',  ( 3.491481338843133355E-15, -0.0000000000000000000, 1.000000000000000000 ) ) ;
#189 = FACE_OUTER_BOUND ( 'NONE', #82, .T. ) ;
#190 = UNCERTAINTY_MEASURE_WITH_UNIT (LENGTH_MEASURE( 1.000000000000000082E-05 ), #70, 'distance_accuracy_value', 'NONE');
#191 = APPROVAL_PERSON_ORGANIZATION ( #87, #125, #210 ) ;
#192 = ADVANCED_FACE ( 'NONE', ( #69 ), #124, .F. ) ;
#193 = CARTESIAN_POINT ( 'NONE',  ( 0.0000000000000000000, 0.0000000000000000000, 0.0000000000000000000 ) ) ;
#194 = CARTESIAN_POINT ( 'NONE',  ( 1.326762908760390423E-13, 1.199999999999994182, 38.00000000000000000 ) ) ;
#195 = APPROVAL ( #197, 'UNSPECIFIED' ) ;
#196 = AXIS2_PLACEMENT_3D ( 'NONE', #161, #86, #106 ) ;
#197 = APPROVAL_STATUS ( 'not_yet_approved' ) ;
#198 = ORIENTED_EDGE ( 'NONE', *, *, #19, .F. ) ;
#199 = PRODUCT_RELATED_PRODUCT_CATEGORY ( 'detail', '', ( #95 ) ) ;
#200 = PERSON_AND_ORGANIZATION ( #129, #17 ) ;
#201 = AXIS2_PLACEMENT_3D ( 'NONE', #158, #61, #122 ) ;
#202 = CARTESIAN_POINT ( 'NONE',  ( 6.459240476859791974E-15, 0.0000000000000000000, 1.849999999999998535 ) ) ;
#203 = CARTESIAN_POINT ( 'NONE',  ( -6.413803915257457113E-31, 2.249659577954772199E-32, -1.836986451539393076E-16 ) ) ;
#204 = ORIENTED_EDGE ( 'NONE', *, *, #211, .F. ) ;
#205 = PRODUCT_DEFINITION_FORMATION_WITH_SPECIFIED_SOURCE ( 'ANY', '', #95, .NOT_KNOWN. ) ;
#206 = DIRECTION ( 'NONE',  ( 1.000000000000000000, 0.0000000000000000000, -3.516331370223255758E-15 ) ) ;
#207 = CARTESIAN_POINT ( 'NONE',  ( 6.459240476859795918E-15, 0.0000000000000000000, 1.849999999999999645 ) ) ;
#208 = DIRECTION ( 'NONE',  ( 0.0000000000000000000, 0.0000000000000000000, 1.000000000000000000 ) ) ;
#209 = AXIS2_PLACEMENT_3D ( 'NONE', #51, #172, #84 ) ;
#210 = APPROVAL_ROLE ( '' ) ;
#211 = EDGE_CURVE ( 'NONE', #213, #213, #130, .T. ) ;
#212 = DIRECTION ( 'NONE',  ( -4.275831445896958607E-31, -1.000000000000000000, -1.224646799147353207E-16 ) ) ;
#213 = VERTEX_POINT ( 'NONE', #177 ) ;
#214 = CLOSED_SHELL ( 'NONE', ( #41, #21, #192, #76, #150 ) ) ;
#215 = COORDINATED_UNIVERSAL_TIME_OFFSET ( 1, 0, .AHEAD. ) ;
#216 = ORIENTED_EDGE ( 'NONE', *, *, #182, .T. ) ;
#217 = PERSON_AND_ORGANIZATION ( #129, #17 ) ;
#218 = APPROVAL_STATUS ( 'not_yet_approved' ) ;
#219 = AXIS2_PLACEMENT_3D ( 'NONE', #170, #187, #117 ) ;
#220 = APPROVAL_PERSON_ORGANIZATION ( #72, #140, #162 ) ;
#221 = PRODUCT_DEFINITION ( 'UNKNOWN', '', #205, #121 ) ;
#222 = FACE_OUTER_BOUND ( 'NONE', #65, .T. ) ;
#223 = DIRECTION ( 'NONE',  ( 3.491481338843133355E-15, -0.0000000000000000000, 1.000000000000000000 ) ) ;
ENDSEC;
END-ISO-10303-21;
