ISO-10303-21;
HEADER;
FILE_DESCRIPTION (( 'STEP AP203' ),
    '1' );
FILE_NAME ('63816.step',
    '2021-11-10T06:36:38',
    ( '' ),
    ( '' ),
    'SwSTEP 2.0',
    'SolidWorks 2019',
    '' );
FILE_SCHEMA (( 'CONFIG_CONTROL_DESIGN' ));
ENDSEC;

DATA;
#1 = FACE_OUTER_BOUND ( 'NONE', #10, .T. ) ;
#2 = PLANE ( 'NONE',  #53 ) ;
#3 = CC_DESIGN_PERSON_AND_ORGANIZATION_ASSIGNMENT ( #124, #191, ( #91 ) ) ;
#4 = AXIS2_PLACEMENT_3D ( 'NONE', #157, #146, #204 ) ;
#5 = APPROVAL_ROLE ( '' ) ;
#6 = DESIGN_CONTEXT ( 'detailed design', #39, 'design' ) ;
#7 = PERSON_AND_ORGANIZATION ( #18, #41 ) ;
#8 = ORIENTED_EDGE ( 'NONE', *, *, #158, .T. ) ;
#9 = APPROVAL ( #139, 'UNSPECIFIED' ) ;
#10 = EDGE_LOOP ( 'NONE', ( #173 ) ) ;
#11 = ADVANCED_FACE ( 'NONE', ( #205 ), #208, .F. ) ;
#12 = FACE_OUTER_BOUND ( 'NONE', #101, .T. ) ;
#13 = TOROIDAL_SURFACE ( 'NONE', #24, 8.875000000000001776, 8.000000000000000000 ) ;
#14 = DIRECTION ( 'NONE',  ( 3.491481338843133355E-15, -0.0000000000000000000, 1.000000000000000000 ) ) ;
#15 = CARTESIAN_POINT ( 'NONE',  ( 1.326762908760390423E-13, -4.653657836759941941E-15, 38.00000000000000000 ) ) ;
#16 = PERSON_AND_ORGANIZATION_ROLE ( 'classification_officer' ) ;
#17 = CARTESIAN_POINT ( 'NONE',  ( 0.8750000000000068834, 0.0000000000000000000, 1.749999999999995337 ) ) ;
#18 = PERSON ( 'UNSPECIFIED', 'UNSPECIFIED', 'UNSPECIFIED', ('UNSPECIFIED'), ('UNSPECIFIED'), ('UNSPECIFIED') ) ;
#19 = EDGE_CURVE ( 'NONE', #98, #98, #142, .T. ) ;
#20 = COORDINATED_UNIVERSAL_TIME_OFFSET ( 1, 0, .AHEAD. ) ;
#21 = LOCAL_TIME ( 7, 36, 38.00000000000000000, #109 ) ;
#22 = AXIS2_PLACEMENT_3D ( 'NONE', #100, #57, #219 ) ;
#23 = CC_DESIGN_PERSON_AND_ORGANIZATION_ASSIGNMENT ( #7, #82, ( #50 ) ) ;
#24 = AXIS2_PLACEMENT_3D ( 'NONE', #200, #33, #172 ) ;
#25 =( NAMED_UNIT ( * ) PLANE_ANGLE_UNIT ( ) SI_UNIT ( $, .RADIAN. ) );
#26 = ORIENTED_EDGE ( 'NONE', *, *, #19, .F. ) ;
#27 = CIRCLE ( 'NONE', #22, 0.8750000000000000000 ) ;
#28 = EDGE_CURVE ( 'NONE', #38, #38, #160, .T. ) ;
#29 = COORDINATED_UNIVERSAL_TIME_OFFSET ( 1, 0, .AHEAD. ) ;
#30 = CARTESIAN_POINT ( 'NONE',  ( -1.499999999999979350, 0.0000000000000000000, 4.849899191909304186 ) ) ;
#31 = LOCAL_TIME ( 7, 36, 38.00000000000000000, #29 ) ;
#32 = APPROVAL_PERSON_ORGANIZATION ( #123, #9, #5 ) ;
#33 = DIRECTION ( 'NONE',  ( 3.491481338843133355E-15, -0.0000000000000000000, 1.000000000000000000 ) ) ;
#34 = PERSON_AND_ORGANIZATION ( #18, #41 ) ;
#35 = DIRECTION ( 'NONE',  ( -4.275831445896958607E-31, -1.000000000000000000, -1.224646799147353207E-16 ) ) ;
#36 = CC_DESIGN_APPROVAL ( #129, ( #147 ) ) ;
#37 = DIRECTION ( 'NONE',  ( 1.000000000000000000, 0.0000000000000000000, -3.491481338843133355E-15 ) ) ;
#38 = VERTEX_POINT ( 'NONE', #186 ) ;
#39 = APPLICATION_CONTEXT ( 'configuration controlled 3d designs of mechanical parts and assemblies' ) ;
#40 = CARTESIAN_POINT ( 'NONE',  ( 1.693333252382170896E-14, 0.0000000000000000000, 4.849899191909298857 ) ) ;
#41 = ORGANIZATION ( 'UNSPECIFIED', 'UNSPECIFIED', '' ) ;
#42 = DATE_AND_TIME ( #199, #92 ) ;
#43 = DATE_TIME_ROLE ( 'creation_date' ) ;
#44 = DATE_TIME_ROLE ( 'classification_date' ) ;
#45 = ORIENTED_EDGE ( 'NONE', *, *, #19, .T. ) ;
#46 = ADVANCED_BREP_SHAPE_REPRESENTATION ( '63816', ( #211, #59, #111 ), #195 ) ;
#47 = EDGE_LOOP ( 'NONE', ( #136 ) ) ;
#48 = ADVANCED_FACE ( 'NONE', ( #12 ), #2, .F. ) ;
#49 = CLOSED_SHELL ( 'NONE', ( #81, #85, #11 ) ) ;
#50 = PRODUCT_DEFINITION_FORMATION_WITH_SPECIFIED_SOURCE ( 'ANY', '', #91, .NOT_KNOWN. ) ;
#51 = SECURITY_CLASSIFICATION_LEVEL ( 'unclassified' ) ;
#52 = FACE_OUTER_BOUND ( 'NONE', #60, .T. ) ;
#53 = AXIS2_PLACEMENT_3D ( 'NONE', #179, #71, #68 ) ;
#54 = PERSON_AND_ORGANIZATION ( #18, #41 ) ;
#55 = ADVANCED_FACE ( 'NONE', ( #128, #107 ), #163, .T. ) ;
#56 = DIRECTION ( 'NONE',  ( 3.491481338843133355E-15, -0.0000000000000000000, 1.000000000000000000 ) ) ;
#57 = DIRECTION ( 'NONE',  ( 3.491481338843133355E-15, -0.0000000000000000000, 1.000000000000000000 ) ) ;
#58 = DIRECTION ( 'NONE',  ( 1.000000000000000000, 0.0000000000000000000, -3.469446951953611033E-15 ) ) ;
#59 = MANIFOLD_SOLID_BREP ( 'Corps-Déplacer/Copier1[2]', #49 ) ;
#60 = EDGE_LOOP ( 'NONE', ( #8 ) ) ;
#61 = ORIENTED_EDGE ( 'NONE', *, *, #97, .T. ) ;
#62 = DIRECTION ( 'NONE',  ( 3.491481338843133355E-15, -0.0000000000000000000, 1.000000000000000000 ) ) ;
#63 = EDGE_LOOP ( 'NONE', ( #83 ) ) ;
#64 = AXIS2_PLACEMENT_3D ( 'NONE', #185, #122, #180 ) ;
#65 = CYLINDRICAL_SURFACE ( 'NONE', #64, 1.499999999999996447 ) ;
#66 = EDGE_LOOP ( 'NONE', ( #121 ) ) ;
#67 = CARTESIAN_POINT ( 'NONE',  ( -6.413803915257457113E-31, 2.249659577954772199E-32, -1.836986451539393076E-16 ) ) ;
#68 = DIRECTION ( 'NONE',  ( 4.275831445896958607E-31, 1.000000000000000000, 1.224646799147353207E-16 ) ) ;
#69 = AXIS2_PLACEMENT_3D ( 'NONE', #40, #119, #187 ) ;
#70 = CIRCLE ( 'NONE', #69, 1.499999999999996447 ) ;
#71 = DIRECTION ( 'NONE',  ( -3.491481338843133355E-15, 1.224646799147353207E-16, -1.000000000000000000 ) ) ;
#72 = CALENDAR_DATE ( 2021, 10, 11 ) ;
#73 = CYLINDRICAL_SURFACE ( 'NONE', #143, 0.8750000000000003331 ) ;
#74 = DATE_AND_TIME ( #217, #148 ) ;
#75 = DATE_AND_TIME ( #144, #31 ) ;
#76 = CC_DESIGN_PERSON_AND_ORGANIZATION_ASSIGNMENT ( #34, #183, ( #147 ) ) ;
#77 = CARTESIAN_POINT ( 'NONE',  ( 0.8750000000000000000, 0.0000000000000000000, -3.055046171487741686E-15 ) ) ;
#78 = CC_DESIGN_PERSON_AND_ORGANIZATION_ASSIGNMENT ( #177, #16, ( #198 ) ) ;
#79 = CLOSED_SHELL ( 'NONE', ( #166, #55, #48, #214, #137 ) ) ;
#80 = CALENDAR_DATE ( 2021, 10, 11 ) ;
#81 = ADVANCED_FACE ( 'NONE', ( #1 ), #117, .T. ) ;
#82 = PERSON_AND_ORGANIZATION_ROLE ( 'design_supplier' ) ;
#83 = ORIENTED_EDGE ( 'NONE', *, *, #171, .T. ) ;
#84 = ORIENTED_EDGE ( 'NONE', *, *, #171, .F. ) ;
#85 = ADVANCED_FACE ( 'NONE', ( #133, #145 ), #73, .T. ) ;
#86 = EDGE_LOOP ( 'NONE', ( #84 ) ) ;
#87 = DIRECTION ( 'NONE',  ( 3.491481338843133355E-15, -1.224646799147353207E-16, 1.000000000000000000 ) ) ;
#88 = DIRECTION ( 'NONE',  ( -3.491481338843133355E-15, 1.224646799147353207E-16, -1.000000000000000000 ) ) ;
#89 = AXIS2_PLACEMENT_3D ( 'NONE', #138, #14, #58 ) ;
#90 = SHAPE_DEFINITION_REPRESENTATION ( #182, #46 ) ;
#91 = PRODUCT ( '63816', '63816', '', ( #127 ) ) ;
#92 = LOCAL_TIME ( 7, 36, 38.00000000000000000, #218 ) ;
#93 = APPLICATION_CONTEXT ( 'configuration controlled 3d designs of mechanical parts and assemblies' ) ;
#94 = CARTESIAN_POINT ( 'NONE',  ( 1.316288464743861212E-13, 1.499999999999994005, 37.69999999999999574 ) ) ;
#95 = APPROVAL_DATE_TIME ( #74, #164 ) ;
#96 = UNCERTAINTY_MEASURE_WITH_UNIT (LENGTH_MEASURE( 1.000000000000000082E-05 ), #159, 'distance_accuracy_value', 'NONE');
#97 = EDGE_CURVE ( 'NONE', #170, #170, #27, .T. ) ;
#98 = VERTEX_POINT ( 'NONE', #94 ) ;
#99 = DIRECTION ( 'NONE',  ( 3.491481338843133355E-15, -1.224646799147353207E-16, 1.000000000000000000 ) ) ;
#100 = CARTESIAN_POINT ( 'NONE',  ( 0.0000000000000000000, 0.0000000000000000000, 0.0000000000000000000 ) ) ;
#101 = EDGE_LOOP ( 'NONE', ( #190 ) ) ;
#102 = APPLICATION_PROTOCOL_DEFINITION ( 'international standard', 'config_control_design', 1994, #93 ) ;
#103 = EDGE_LOOP ( 'NONE', ( #206 ) ) ;
#104 = APPLICATION_PROTOCOL_DEFINITION ( 'international standard', 'config_control_design', 1994, #39 ) ;
#105 = DATE_AND_TIME ( #72, #192 ) ;
#106 = PRODUCT_RELATED_PRODUCT_CATEGORY ( 'detail', '', ( #91 ) ) ;
#107 = FACE_BOUND ( 'NONE', #140, .T. ) ;
#108 = AXIS2_PLACEMENT_3D ( 'NONE', #15, #88, #161 ) ;
#109 = COORDINATED_UNIVERSAL_TIME_OFFSET ( 1, 0, .AHEAD. ) ;
#110 = CC_DESIGN_DATE_AND_TIME_ASSIGNMENT ( #178, #43, ( #147 ) ) ;
#111 = AXIS2_PLACEMENT_3D ( 'NONE', #209, #220, #154 ) ;
#112 = VERTEX_POINT ( 'NONE', #30 ) ;
#113 = FACE_OUTER_BOUND ( 'NONE', #66, .T. ) ;
#114 = FACE_OUTER_BOUND ( 'NONE', #63, .T. ) ;
#115 = APPROVAL_PERSON_ORGANIZATION ( #165, #129, #210 ) ;
#116 = DIRECTION ( 'NONE',  ( 1.000000000000000000, 0.0000000000000000000, -3.469446951953611033E-15 ) ) ;
#117 = PLANE ( 'NONE',  #156 ) ;
#118 = EDGE_LOOP ( 'NONE', ( #45 ) ) ;
#119 = DIRECTION ( 'NONE',  ( -3.491481338843133355E-15, 0.0000000000000000000, -1.000000000000000000 ) ) ;
#120 = CARTESIAN_POINT ( 'NONE',  ( 1.326762908760390423E-13, -4.653657836759941941E-15, 38.00000000000000000 ) ) ;
#121 = ORIENTED_EDGE ( 'NONE', *, *, #158, .F. ) ;
#122 = DIRECTION ( 'NONE',  ( -3.491481338843133355E-15, 1.224646799147353207E-16, -1.000000000000000000 ) ) ;
#123 = PERSON_AND_ORGANIZATION ( #18, #41 ) ;
#124 = PERSON_AND_ORGANIZATION ( #18, #41 ) ;
#125 = APPROVAL_STATUS ( 'not_yet_approved' ) ;
#126 = CIRCLE ( 'NONE', #89, 0.8750000000000007772 ) ;
#127 = MECHANICAL_CONTEXT ( 'NONE', #93, 'mechanical' ) ;
#128 = FACE_OUTER_BOUND ( 'NONE', #153, .T. ) ;
#129 = APPROVAL ( #132, 'UNSPECIFIED' ) ;
#130 = CC_DESIGN_PERSON_AND_ORGANIZATION_ASSIGNMENT ( #54, #184, ( #50 ) ) ;
#131 = CC_DESIGN_SECURITY_CLASSIFICATION ( #198, ( #50 ) ) ;
#132 = APPROVAL_STATUS ( 'not_yet_approved' ) ;
#133 = FACE_OUTER_BOUND ( 'NONE', #150, .T. ) ;
#134 = CARTESIAN_POINT ( 'NONE',  ( 6.110092342975482583E-15, -2.529805069132850746E-16, 1.749999999999999778 ) ) ;
#135 = CC_DESIGN_DATE_AND_TIME_ASSIGNMENT ( #42, #44, ( #198 ) ) ;
#136 = ORIENTED_EDGE ( 'NONE', *, *, #97, .F. ) ;
#137 = ADVANCED_FACE ( 'NONE', ( #149 ), #215, .F. ) ;
#138 = CARTESIAN_POINT ( 'NONE',  ( 6.110092342975477061E-15, 0.0000000000000000000, 1.749999999999998224 ) ) ;
#139 = APPROVAL_STATUS ( 'not_yet_approved' ) ;
#140 = EDGE_LOOP ( 'NONE', ( #216 ) ) ;
#141 =( NAMED_UNIT ( * ) SI_UNIT ( $, .STERADIAN. ) SOLID_ANGLE_UNIT ( ) );
#142 = CIRCLE ( 'NONE', #4, 1.499999999999998446 ) ;
#143 = AXIS2_PLACEMENT_3D ( 'NONE', #188, #62, #37 ) ;
#144 = CALENDAR_DATE ( 2021, 10, 11 ) ;
#145 = FACE_OUTER_BOUND ( 'NONE', #103, .T. ) ;
#146 = DIRECTION ( 'NONE',  ( -3.491481338843133355E-15, 1.224646799147353207E-16, -1.000000000000000000 ) ) ;
#147 = PRODUCT_DEFINITION ( 'UNKNOWN', '', #50, #6 ) ;
#148 = LOCAL_TIME ( 7, 36, 38.00000000000000000, #151 ) ;
#149 = FACE_OUTER_BOUND ( 'NONE', #86, .T. ) ;
#150 = EDGE_LOOP ( 'NONE', ( #61 ) ) ;
#151 = COORDINATED_UNIVERSAL_TIME_OFFSET ( 1, 0, .AHEAD. ) ;
#152 = FACE_OUTER_BOUND ( 'NONE', #118, .T. ) ;
#153 = EDGE_LOOP ( 'NONE', ( #26 ) ) ;
#154 = DIRECTION ( 'NONE',  ( 1.000000000000000000, 0.0000000000000000000, 0.0000000000000000000 ) ) ;
#155 = AXIS2_PLACEMENT_3D ( 'NONE', #67, #87, #223 ) ;
#156 = AXIS2_PLACEMENT_3D ( 'NONE', #196, #99, #169 ) ;
#157 = CARTESIAN_POINT ( 'NONE',  ( 1.316288464743861212E-13, -4.616918432785521081E-15, 37.69999999999999574 ) ) ;
#158 = EDGE_CURVE ( 'NONE', #112, #112, #70, .T. ) ;
#159 =( LENGTH_UNIT ( ) NAMED_UNIT ( * ) SI_UNIT ( .MILLI., .METRE. ) );
#160 = CIRCLE ( 'NONE', #167, 1.199999999999998845 ) ;
#161 = DIRECTION ( 'NONE',  ( 0.0000000000000000000, 1.000000000000000000, 0.0000000000000000000 ) ) ;
#162 = VERTEX_POINT ( 'NONE', #17 ) ;
#163 = CONICAL_SURFACE ( 'NONE', #108, 1.199999999999998845, 0.7853981633974450594 ) ;
#164 = APPROVAL ( #125, 'UNSPECIFIED' ) ;
#165 = PERSON_AND_ORGANIZATION ( #18, #41 ) ;
#166 = ADVANCED_FACE ( 'NONE', ( #152, #113 ), #65, .T. ) ;
#167 = AXIS2_PLACEMENT_3D ( 'NONE', #120, #168, #201 ) ;
#168 = DIRECTION ( 'NONE',  ( -3.491481338843133355E-15, 1.224646799147353207E-16, -1.000000000000000000 ) ) ;
#169 = DIRECTION ( 'NONE',  ( -4.275831445896958607E-31, -1.000000000000000000, -1.224646799147353207E-16 ) ) ;
#170 = VERTEX_POINT ( 'NONE', #77 ) ;
#171 = EDGE_CURVE ( 'NONE', #162, #162, #126, .T. ) ;
#172 = DIRECTION ( 'NONE',  ( 1.000000000000000000, 0.0000000000000000000, -3.491481338843133355E-15 ) ) ;
#173 = ORIENTED_EDGE ( 'NONE', *, *, #194, .T. ) ;
#174 = VERTEX_POINT ( 'NONE', #222 ) ;
#175 = CC_DESIGN_APPROVAL ( #9, ( #50 ) ) ;
#176 = APPROVAL_DATE_TIME ( #105, #9 ) ;
#177 = PERSON_AND_ORGANIZATION ( #18, #41 ) ;
#178 = DATE_AND_TIME ( #80, #21 ) ;
#179 = CARTESIAN_POINT ( 'NONE',  ( 1.326762908760390423E-13, 8.998558695971069014E-33, 38.00000000000000000 ) ) ;
#180 = DIRECTION ( 'NONE',  ( 4.275831445896958607E-31, 1.000000000000000000, 1.224646799147352961E-16 ) ) ;
#181 = AXIS2_PLACEMENT_3D ( 'NONE', #134, #203, #35 ) ;
#182 = PRODUCT_DEFINITION_SHAPE ( 'NONE', 'NONE',  #147 ) ;
#183 = PERSON_AND_ORGANIZATION_ROLE ( 'creator' ) ;
#184 = PERSON_AND_ORGANIZATION_ROLE ( 'creator' ) ;
#185 = CARTESIAN_POINT ( 'NONE',  ( 0.0000000000000000000, 0.0000000000000000000, 0.0000000000000000000 ) ) ;
#186 = CARTESIAN_POINT ( 'NONE',  ( 1.326762908760390423E-13, 1.199999999999994182, 38.00000000000000000 ) ) ;
#187 = DIRECTION ( 'NONE',  ( -1.000000000000000000, 0.0000000000000000000, 3.469446951953622472E-15 ) ) ;
#188 = CARTESIAN_POINT ( 'NONE',  ( 0.0000000000000000000, 0.0000000000000000000, 0.0000000000000000000 ) ) ;
#189 = PERSON_AND_ORGANIZATION ( #18, #41 ) ;
#190 = ORIENTED_EDGE ( 'NONE', *, *, #28, .F. ) ;
#191 = PERSON_AND_ORGANIZATION_ROLE ( 'design_owner' ) ;
#192 = LOCAL_TIME ( 7, 36, 38.00000000000000000, #20 ) ;
#193 = AXIS2_PLACEMENT_3D ( 'NONE', #212, #56, #116 ) ;
#194 = EDGE_CURVE ( 'NONE', #174, #174, #207, .T. ) ;
#195 =( GEOMETRIC_REPRESENTATION_CONTEXT ( 3 ) GLOBAL_UNCERTAINTY_ASSIGNED_CONTEXT ( ( #96 ) ) GLOBAL_UNIT_ASSIGNED_CONTEXT ( ( #159, #25, #141 ) ) REPRESENTATION_CONTEXT ( 'NONE', 'WORKASPACE' ) );
#196 = CARTESIAN_POINT ( 'NONE',  ( 6.110092342975482583E-15, -2.529805069132850746E-16, 1.749999999999999778 ) ) ;
#197 = APPROVAL_DATE_TIME ( #75, #129 ) ;
#198 = SECURITY_CLASSIFICATION ( '', '', #51 ) ;
#199 = CALENDAR_DATE ( 2021, 10, 11 ) ;
#200 = CARTESIAN_POINT ( 'NONE',  ( 6.110092342975481005E-15, 0.0000000000000000000, 1.749999999999999334 ) ) ;
#201 = DIRECTION ( 'NONE',  ( 0.0000000000000000000, 1.000000000000000000, 0.0000000000000000000 ) ) ;
#202 = APPROVAL_ROLE ( '' ) ;
#203 = DIRECTION ( 'NONE',  ( 3.491481338843133355E-15, -1.224646799147353207E-16, 1.000000000000000000 ) ) ;
#204 = DIRECTION ( 'NONE',  ( 0.0000000000000000000, 1.000000000000000000, 0.0000000000000000000 ) ) ;
#205 = FACE_OUTER_BOUND ( 'NONE', #47, .T. ) ;
#206 = ORIENTED_EDGE ( 'NONE', *, *, #194, .F. ) ;
#207 = CIRCLE ( 'NONE', #193, 0.8750000000000007772 ) ;
#208 = PLANE ( 'NONE',  #155 ) ;
#209 = CARTESIAN_POINT ( 'NONE',  ( 0.0000000000000000000, 0.0000000000000000000, 0.0000000000000000000 ) ) ;
#210 = APPROVAL_ROLE ( '' ) ;
#211 = MANIFOLD_SOLID_BREP ( 'Corps-Déplacer/Copier1[1]', #79 ) ;
#212 = CARTESIAN_POINT ( 'NONE',  ( 6.110092342975477061E-15, 0.0000000000000000000, 1.749999999999998224 ) ) ;
#213 = CC_DESIGN_APPROVAL ( #164, ( #198 ) ) ;
#214 = ADVANCED_FACE ( 'NONE', ( #114, #52 ), #13, .F. ) ;
#215 = PLANE ( 'NONE',  #181 ) ;
#216 = ORIENTED_EDGE ( 'NONE', *, *, #28, .T. ) ;
#217 = CALENDAR_DATE ( 2021, 10, 11 ) ;
#218 = COORDINATED_UNIVERSAL_TIME_OFFSET ( 1, 0, .AHEAD. ) ;
#219 = DIRECTION ( 'NONE',  ( 1.000000000000000000, 0.0000000000000000000, -3.491481338843133355E-15 ) ) ;
#220 = DIRECTION ( 'NONE',  ( 0.0000000000000000000, 0.0000000000000000000, 1.000000000000000000 ) ) ;
#221 = APPROVAL_PERSON_ORGANIZATION ( #189, #164, #202 ) ;
#222 = CARTESIAN_POINT ( 'NONE',  ( 0.8750000000000068834, 0.0000000000000000000, 1.749999999999995337 ) ) ;
#223 = DIRECTION ( 'NONE',  ( -4.275831445896958607E-31, -1.000000000000000000, -1.224646799147353207E-16 ) ) ;
ENDSEC;
END-ISO-10303-21;
