ISO-10303-21;
HEADER;
FILE_DESCRIPTION (( 'STEP AP203' ),
    '1' );
FILE_NAME ('63815.step',
    '2021-11-10T06:36:37',
    ( '' ),
    ( '' ),
    'SwSTEP 2.0',
    'SolidWorks 2019',
    '' );
FILE_SCHEMA (( 'CONFIG_CONTROL_DESIGN' ));
ENDSEC;

DATA;
#1 = AXIS2_PLACEMENT_3D ( 'NONE', #7, #216, #168 ) ;
#2 = FACE_OUTER_BOUND ( 'NONE', #179, .T. ) ;
#3 = EDGE_LOOP ( 'NONE', ( #180 ) ) ;
#4 = AXIS2_PLACEMENT_3D ( 'NONE', #192, #193, #34 ) ;
#5 = ORIENTED_EDGE ( 'NONE', *, *, #49, .F. ) ;
#6 = FACE_OUTER_BOUND ( 'NONE', #107, .T. ) ;
#7 = CARTESIAN_POINT ( 'NONE',  ( 1.326762908760390423E-13, 8.998558695971069014E-33, 38.00000000000000000 ) ) ;
#8 = CLOSED_SHELL ( 'NONE', ( #113, #29, #204 ) ) ;
#9 = DIRECTION ( 'NONE',  ( 3.491481338843133355E-15, -1.224646799147353207E-16, 1.000000000000000000 ) ) ;
#10 = CARTESIAN_POINT ( 'NONE',  ( 0.0000000000000000000, 0.0000000000000000000, 0.0000000000000000000 ) ) ;
#11 = CONICAL_SURFACE ( 'NONE', #132, 1.199999999999998845, 0.7853981633974450594 ) ;
#12 = DIRECTION ( 'NONE',  ( 1.000000000000000000, 0.0000000000000000000, 0.0000000000000000000 ) ) ;
#13 = ORIENTED_EDGE ( 'NONE', *, *, #161, .T. ) ;
#14 = CC_DESIGN_DATE_AND_TIME_ASSIGNMENT ( #175, #64, ( #75 ) ) ;
#15 = COORDINATED_UNIVERSAL_TIME_OFFSET ( 1, 0, .AHEAD. ) ;
#16 = PERSON_AND_ORGANIZATION_ROLE ( 'classification_officer' ) ;
#17 = APPROVAL_STATUS ( 'not_yet_approved' ) ;
#18 = DIRECTION ( 'NONE',  ( -4.275831445896958607E-31, -1.000000000000000000, -1.224646799147353207E-16 ) ) ;
#19 = AXIS2_PLACEMENT_3D ( 'NONE', #146, #76, #57 ) ;
#20 = CARTESIAN_POINT ( 'NONE',  ( 1.326762908760390423E-13, -4.653657836759941941E-15, 38.00000000000000000 ) ) ;
#21 = EDGE_LOOP ( 'NONE', ( #144 ) ) ;
#22 = APPROVAL_PERSON_ORGANIZATION ( #139, #42, #206 ) ;
#23 =( NAMED_UNIT ( * ) SI_UNIT ( $, .STERADIAN. ) SOLID_ANGLE_UNIT ( ) );
#24 = PLANE ( 'NONE',  #1 ) ;
#25 = PRODUCT ( '63815', '63815', '', ( #218 ) ) ;
#26 = FACE_OUTER_BOUND ( 'NONE', #54, .T. ) ;
#27 = FACE_OUTER_BOUND ( 'NONE', #209, .T. ) ;
#28 = CARTESIAN_POINT ( 'NONE',  ( 0.8500000000000059730, 0.0000000000000000000, 1.699999999999995071 ) ) ;
#29 = ADVANCED_FACE ( 'NONE', ( #6, #2 ), #70, .T. ) ;
#30 = APPROVAL_ROLE ( '' ) ;
#31 = APPROVAL_DATE_TIME ( #171, #182 ) ;
#32 = APPLICATION_PROTOCOL_DEFINITION ( 'international standard', 'config_control_design', 1994, #194 ) ;
#33 = AXIS2_PLACEMENT_3D ( 'NONE', #92, #129, #61 ) ;
#34 = DIRECTION ( 'NONE',  ( 0.0000000000000000000, 1.000000000000000000, 0.0000000000000000000 ) ) ;
#35 = DIRECTION ( 'NONE',  ( -3.491481338843133355E-15, 1.224646799147353207E-16, -1.000000000000000000 ) ) ;
#36 = EDGE_LOOP ( 'NONE', ( #13 ) ) ;
#37 = EDGE_LOOP ( 'NONE', ( #162 ) ) ;
#38 = ADVANCED_FACE ( 'NONE', ( #69 ), #104, .F. ) ;
#39 = CIRCLE ( 'NONE', #122, 0.8500000000000000888 ) ;
#40 = CARTESIAN_POINT ( 'NONE',  ( 0.8499999999999999778, 0.0000000000000000000, -2.967759138016662958E-15 ) ) ;
#41 = DIRECTION ( 'NONE',  ( 1.000000000000000000, 0.0000000000000000000, -3.571489509364014096E-15 ) ) ;
#42 = APPROVAL ( #47, 'UNSPECIFIED' ) ;
#43 = AXIS2_PLACEMENT_3D ( 'NONE', #125, #176, #18 ) ;
#44 = CARTESIAN_POINT ( 'NONE',  ( 1.696412355735784311E-14, 0.0000000000000000000, 4.858718094417405986 ) ) ;
#45 = DIRECTION ( 'NONE',  ( -3.491481338843133355E-15, 1.224646799147353207E-16, -1.000000000000000000 ) ) ;
#46 = CALENDAR_DATE ( 2021, 10, 11 ) ;
#47 = APPROVAL_STATUS ( 'not_yet_approved' ) ;
#48 = PERSON_AND_ORGANIZATION ( #118, #65 ) ;
#49 = EDGE_CURVE ( 'NONE', #133, #133, #71, .T. ) ;
#50 = APPROVAL_DATE_TIME ( #140, #77 ) ;
#51 = APPROVAL_PERSON_ORGANIZATION ( #48, #77, #66 ) ;
#52 = ORIENTED_EDGE ( 'NONE', *, *, #103, .T. ) ;
#53 = ORIENTED_EDGE ( 'NONE', *, *, #106, .F. ) ;
#54 = EDGE_LOOP ( 'NONE', ( #150 ) ) ;
#55 = DESIGN_CONTEXT ( 'detailed design', #194, 'design' ) ;
#56 = CYLINDRICAL_SURFACE ( 'NONE', #33, 1.499999999999996447 ) ;
#57 = DIRECTION ( 'NONE',  ( 1.000000000000000000, 0.0000000000000000000, -3.571489509364014096E-15 ) ) ;
#58 = FACE_OUTER_BOUND ( 'NONE', #72, .T. ) ;
#59 = FACE_OUTER_BOUND ( 'NONE', #36, .T. ) ;
#60 = CIRCLE ( 'NONE', #199, 0.8499999999999999778 ) ;
#61 = DIRECTION ( 'NONE',  ( 4.275831445896958607E-31, 1.000000000000000000, 1.224646799147352961E-16 ) ) ;
#62 = PERSON_AND_ORGANIZATION ( #118, #65 ) ;
#63 = COORDINATED_UNIVERSAL_TIME_OFFSET ( 1, 0, .AHEAD. ) ;
#64 = DATE_TIME_ROLE ( 'classification_date' ) ;
#65 = ORGANIZATION ( 'UNSPECIFIED', 'UNSPECIFIED', '' ) ;
#66 = APPROVAL_ROLE ( '' ) ;
#67 = APPROVAL_STATUS ( 'not_yet_approved' ) ;
#68 = CC_DESIGN_APPROVAL ( #182, ( #74 ) ) ;
#69 = FACE_OUTER_BOUND ( 'NONE', #37, .T. ) ;
#70 = CYLINDRICAL_SURFACE ( 'NONE', #98, 0.8500000000000000888 ) ;
#71 = CIRCLE ( 'NONE', #4, 1.199999999999998845 ) ;
#72 = EDGE_LOOP ( 'NONE', ( #5 ) ) ;
#73 = DIRECTION ( 'NONE',  ( 0.0000000000000000000, 1.000000000000000000, 0.0000000000000000000 ) ) ;
#74 = PRODUCT_DEFINITION ( 'UNKNOWN', '', #116, #55 ) ;
#75 = SECURITY_CLASSIFICATION ( '', '', #100 ) ;
#76 = DIRECTION ( 'NONE',  ( 3.491481338843133355E-15, -0.0000000000000000000, 1.000000000000000000 ) ) ;
#77 = APPROVAL ( #67, 'UNSPECIFIED' ) ;
#78 = CARTESIAN_POINT ( 'NONE',  ( 1.316288464743861212E-13, 1.499999999999994005, 37.69999999999999574 ) ) ;
#79 = ORIENTED_EDGE ( 'NONE', *, *, #103, .F. ) ;
#80 = DIRECTION ( 'NONE',  ( 1.000000000000000000, 0.0000000000000000000, -3.491481338843133750E-15 ) ) ;
#81 = LOCAL_TIME ( 7, 36, 37.00000000000000000, #15 ) ;
#82 = DIRECTION ( 'NONE',  ( 3.491481338843133355E-15, -0.0000000000000000000, 1.000000000000000000 ) ) ;
#83 = ADVANCED_FACE ( 'NONE', ( #105, #178 ), #11, .T. ) ;
#84 = CARTESIAN_POINT ( 'NONE',  ( 0.0000000000000000000, 0.0000000000000000000, 0.0000000000000000000 ) ) ;
#85 = ADVANCED_FACE ( 'NONE', ( #59, #185 ), #160, .F. ) ;
#86 = DATE_AND_TIME ( #46, #147 ) ;
#87 = AXIS2_PLACEMENT_3D ( 'NONE', #184, #167, #197 ) ;
#88 = CALENDAR_DATE ( 2021, 10, 11 ) ;
#89 = APPROVAL_PERSON_ORGANIZATION ( #115, #182, #30 ) ;
#90 = DIRECTION ( 'NONE',  ( 1.000000000000000000, 0.0000000000000000000, -3.491481338843132961E-15 ) ) ;
#91 = CIRCLE ( 'NONE', #186, 1.499999999999996447 ) ;
#92 = CARTESIAN_POINT ( 'NONE',  ( 0.0000000000000000000, 0.0000000000000000000, 0.0000000000000000000 ) ) ;
#93 = PLANE ( 'NONE',  #141 ) ;
#94 = CC_DESIGN_PERSON_AND_ORGANIZATION_ASSIGNMENT ( #62, #16, ( #75 ) ) ;
#95 = CARTESIAN_POINT ( 'NONE',  ( 1.326762908760390423E-13, 1.199999999999994182, 38.00000000000000000 ) ) ;
#96 = VERTEX_POINT ( 'NONE', #28 ) ;
#97 =( LENGTH_UNIT ( ) NAMED_UNIT ( * ) SI_UNIT ( .MILLI., .METRE. ) );
#98 = AXIS2_PLACEMENT_3D ( 'NONE', #191, #123, #90 ) ;
#99 = PERSON_AND_ORGANIZATION_ROLE ( 'creator' ) ;
#100 = SECURITY_CLASSIFICATION_LEVEL ( 'unclassified' ) ;
#101 = COORDINATED_UNIVERSAL_TIME_OFFSET ( 1, 0, .AHEAD. ) ;
#102 = APPLICATION_PROTOCOL_DEFINITION ( 'international standard', 'config_control_design', 1994, #158 ) ;
#103 = EDGE_CURVE ( 'NONE', #200, #200, #60, .T. ) ;
#104 = PLANE ( 'NONE',  #43 ) ;
#105 = FACE_OUTER_BOUND ( 'NONE', #156, .T. ) ;
#106 = EDGE_CURVE ( 'NONE', #163, #163, #155, .T. ) ;
#107 = EDGE_LOOP ( 'NONE', ( #52 ) ) ;
#108 = ORIENTED_EDGE ( 'NONE', *, *, #148, .T. ) ;
#109 = VERTEX_POINT ( 'NONE', #114 ) ;
#110 = CARTESIAN_POINT ( 'NONE',  ( 5.935518276033325915E-15, -2.457524924300483455E-16, 1.699999999999999734 ) ) ;
#111 = CARTESIAN_POINT ( 'NONE',  ( 5.935518276033324337E-15, 0.0000000000000000000, 1.699999999999999289 ) ) ;
#112 = DIRECTION ( 'NONE',  ( -3.491481338843133355E-15, 0.0000000000000000000, -1.000000000000000000 ) ) ;
#113 = ADVANCED_FACE ( 'NONE', ( #181 ), #93, .T. ) ;
#114 = CARTESIAN_POINT ( 'NONE',  ( -1.499999999999979350, 0.0000000000000000000, 4.858718094417411315 ) ) ;
#115 = PERSON_AND_ORGANIZATION ( #118, #65 ) ;
#116 = PRODUCT_DEFINITION_FORMATION_WITH_SPECIFIED_SOURCE ( 'ANY', '', #25, .NOT_KNOWN. ) ;
#117 = PERSON_AND_ORGANIZATION ( #118, #65 ) ;
#118 = PERSON ( 'UNSPECIFIED', 'UNSPECIFIED', 'UNSPECIFIED', ('UNSPECIFIED'), ('UNSPECIFIED'), ('UNSPECIFIED') ) ;
#119 = SHAPE_DEFINITION_REPRESENTATION ( #215, #172 ) ;
#120 = PERSON_AND_ORGANIZATION ( #118, #65 ) ;
#121 = CALENDAR_DATE ( 2021, 10, 11 ) ;
#122 = AXIS2_PLACEMENT_3D ( 'NONE', #130, #126, #41 ) ;
#123 = DIRECTION ( 'NONE',  ( 3.491481338843133355E-15, -0.0000000000000000000, 1.000000000000000000 ) ) ;
#124 = CC_DESIGN_DATE_AND_TIME_ASSIGNMENT ( #153, #174, ( #74 ) ) ;
#125 = CARTESIAN_POINT ( 'NONE',  ( 5.935518276033325915E-15, -2.457524924300483455E-16, 1.699999999999999734 ) ) ;
#126 = DIRECTION ( 'NONE',  ( 3.491481338843133355E-15, -0.0000000000000000000, 1.000000000000000000 ) ) ;
#127 = AXIS2_PLACEMENT_3D ( 'NONE', #111, #82, #80 ) ;
#128 = UNCERTAINTY_MEASURE_WITH_UNIT (LENGTH_MEASURE( 1.000000000000000082E-05 ), #97, 'distance_accuracy_value', 'NONE');
#129 = DIRECTION ( 'NONE',  ( -3.491481338843133355E-15, 1.224646799147353207E-16, -1.000000000000000000 ) ) ;
#130 = CARTESIAN_POINT ( 'NONE',  ( 5.935518276033320393E-15, 0.0000000000000000000, 1.699999999999998179 ) ) ;
#131 = VERTEX_POINT ( 'NONE', #198 ) ;
#132 = AXIS2_PLACEMENT_3D ( 'NONE', #20, #35, #151 ) ;
#133 = VERTEX_POINT ( 'NONE', #95 ) ;
#134 = CC_DESIGN_PERSON_AND_ORGANIZATION_ASSIGNMENT ( #117, #220, ( #25 ) ) ;
#135 = PERSON_AND_ORGANIZATION ( #118, #65 ) ;
#136 = CC_DESIGN_PERSON_AND_ORGANIZATION_ASSIGNMENT ( #190, #99, ( #116 ) ) ;
#137 = LOCAL_TIME ( 7, 36, 37.00000000000000000, #223 ) ;
#138 = CALENDAR_DATE ( 2021, 10, 11 ) ;
#139 = PERSON_AND_ORGANIZATION ( #118, #65 ) ;
#140 = DATE_AND_TIME ( #138, #81 ) ;
#141 = AXIS2_PLACEMENT_3D ( 'NONE', #110, #9, #214 ) ;
#142 = ORIENTED_EDGE ( 'NONE', *, *, #208, .F. ) ;
#143 = MANIFOLD_SOLID_BREP ( 'Corps-Déplacer/Copier1[2]', #8 ) ;
#144 = ORIENTED_EDGE ( 'NONE', *, *, #208, .T. ) ;
#145 = LOCAL_TIME ( 7, 36, 37.00000000000000000, #101 ) ;
#146 = CARTESIAN_POINT ( 'NONE',  ( 5.935518276033320393E-15, 0.0000000000000000000, 1.699999999999998179 ) ) ;
#147 = LOCAL_TIME ( 7, 36, 37.00000000000000000, #187 ) ;
#148 = EDGE_CURVE ( 'NONE', #109, #109, #91, .T. ) ;
#149 = DIRECTION ( 'NONE',  ( 1.000000000000000000, 0.0000000000000000000, -3.491481338843132961E-15 ) ) ;
#150 = ORIENTED_EDGE ( 'NONE', *, *, #148, .F. ) ;
#151 = DIRECTION ( 'NONE',  ( 0.0000000000000000000, 1.000000000000000000, 0.0000000000000000000 ) ) ;
#152 = CC_DESIGN_APPROVAL ( #42, ( #116 ) ) ;
#153 = DATE_AND_TIME ( #121, #145 ) ;
#154 = ADVANCED_FACE ( 'NONE', ( #58 ), #24, .F. ) ;
#155 = CIRCLE ( 'NONE', #173, 1.499999999999998446 ) ;
#156 = EDGE_LOOP ( 'NONE', ( #53 ) ) ;
#157 = EDGE_LOOP ( 'NONE', ( #108 ) ) ;
#158 = APPLICATION_CONTEXT ( 'configuration controlled 3d designs of mechanical parts and assemblies' ) ;
#159 = ORIENTED_EDGE ( 'NONE', *, *, #49, .T. ) ;
#160 = TOROIDAL_SURFACE ( 'NONE', #127, 8.849999999999999645, 8.000000000000000000 ) ;
#161 = EDGE_CURVE ( 'NONE', #131, #131, #189, .T. ) ;
#162 = ORIENTED_EDGE ( 'NONE', *, *, #161, .F. ) ;
#163 = VERTEX_POINT ( 'NONE', #78 ) ;
#164 = PRODUCT_RELATED_PRODUCT_CATEGORY ( 'detail', '', ( #25 ) ) ;
#165 = DIRECTION ( 'NONE',  ( -1.000000000000000000, 0.0000000000000000000, 3.469446951953622472E-15 ) ) ;
#166 = CC_DESIGN_PERSON_AND_ORGANIZATION_ASSIGNMENT ( #135, #202, ( #74 ) ) ;
#167 = DIRECTION ( 'NONE',  ( 3.491481338843133355E-15, -1.224646799147353207E-16, 1.000000000000000000 ) ) ;
#168 = DIRECTION ( 'NONE',  ( 4.275831445896958607E-31, 1.000000000000000000, 1.224646799147353207E-16 ) ) ;
#169 =( NAMED_UNIT ( * ) PLANE_ANGLE_UNIT ( ) SI_UNIT ( $, .RADIAN. ) );
#170 =( GEOMETRIC_REPRESENTATION_CONTEXT ( 3 ) GLOBAL_UNCERTAINTY_ASSIGNED_CONTEXT ( ( #128 ) ) GLOBAL_UNIT_ASSIGNED_CONTEXT ( ( #97, #169, #23 ) ) REPRESENTATION_CONTEXT ( 'NONE', 'WORKASPACE' ) );
#171 = DATE_AND_TIME ( #88, #177 ) ;
#172 = ADVANCED_BREP_SHAPE_REPRESENTATION ( '63815', ( #211, #143, #203 ), #170 ) ;
#173 = AXIS2_PLACEMENT_3D ( 'NONE', #183, #45, #73 ) ;
#174 = DATE_TIME_ROLE ( 'creation_date' ) ;
#175 = DATE_AND_TIME ( #221, #137 ) ;
#176 = DIRECTION ( 'NONE',  ( 3.491481338843133355E-15, -1.224646799147353207E-16, 1.000000000000000000 ) ) ;
#177 = LOCAL_TIME ( 7, 36, 37.00000000000000000, #63 ) ;
#178 = FACE_BOUND ( 'NONE', #210, .T. ) ;
#179 = EDGE_LOOP ( 'NONE', ( #142 ) ) ;
#180 = ORIENTED_EDGE ( 'NONE', *, *, #106, .T. ) ;
#181 = FACE_OUTER_BOUND ( 'NONE', #21, .T. ) ;
#182 = APPROVAL ( #17, 'UNSPECIFIED' ) ;
#183 = CARTESIAN_POINT ( 'NONE',  ( 1.316288464743861212E-13, -4.616918432785521081E-15, 37.69999999999999574 ) ) ;
#184 = CARTESIAN_POINT ( 'NONE',  ( -6.413803915257457113E-31, 2.249659577954772199E-32, -1.836986451539393076E-16 ) ) ;
#185 = FACE_OUTER_BOUND ( 'NONE', #157, .T. ) ;
#186 = AXIS2_PLACEMENT_3D ( 'NONE', #44, #112, #165 ) ;
#187 = COORDINATED_UNIVERSAL_TIME_OFFSET ( 1, 0, .AHEAD. ) ;
#188 = PERSON_AND_ORGANIZATION_ROLE ( 'design_supplier' ) ;
#189 = CIRCLE ( 'NONE', #19, 0.8500000000000000888 ) ;
#190 = PERSON_AND_ORGANIZATION ( #118, #65 ) ;
#191 = CARTESIAN_POINT ( 'NONE',  ( 0.0000000000000000000, 0.0000000000000000000, 0.0000000000000000000 ) ) ;
#192 = CARTESIAN_POINT ( 'NONE',  ( 1.326762908760390423E-13, -4.653657836759941941E-15, 38.00000000000000000 ) ) ;
#193 = DIRECTION ( 'NONE',  ( -3.491481338843133355E-15, 1.224646799147353207E-16, -1.000000000000000000 ) ) ;
#194 = APPLICATION_CONTEXT ( 'configuration controlled 3d designs of mechanical parts and assemblies' ) ;
#195 = CC_DESIGN_SECURITY_CLASSIFICATION ( #75, ( #116 ) ) ;
#196 = FACE_OUTER_BOUND ( 'NONE', #3, .T. ) ;
#197 = DIRECTION ( 'NONE',  ( -4.275831445896958607E-31, -1.000000000000000000, -1.224646799147353207E-16 ) ) ;
#198 = CARTESIAN_POINT ( 'NONE',  ( 0.8500000000000059730, 0.0000000000000000000, 1.699999999999995071 ) ) ;
#199 = AXIS2_PLACEMENT_3D ( 'NONE', #10, #212, #149 ) ;
#200 = VERTEX_POINT ( 'NONE', #40 ) ;
#201 = APPROVAL_DATE_TIME ( #86, #42 ) ;
#202 = PERSON_AND_ORGANIZATION_ROLE ( 'creator' ) ;
#203 = AXIS2_PLACEMENT_3D ( 'NONE', #84, #205, #12 ) ;
#204 = ADVANCED_FACE ( 'NONE', ( #27 ), #217, .F. ) ;
#205 = DIRECTION ( 'NONE',  ( 0.0000000000000000000, 0.0000000000000000000, 1.000000000000000000 ) ) ;
#206 = APPROVAL_ROLE ( '' ) ;
#207 = CC_DESIGN_APPROVAL ( #77, ( #75 ) ) ;
#208 = EDGE_CURVE ( 'NONE', #96, #96, #39, .T. ) ;
#209 = EDGE_LOOP ( 'NONE', ( #79 ) ) ;
#210 = EDGE_LOOP ( 'NONE', ( #159 ) ) ;
#211 = MANIFOLD_SOLID_BREP ( 'Corps-Déplacer/Copier1[1]', #222 ) ;
#212 = DIRECTION ( 'NONE',  ( 3.491481338843133355E-15, -0.0000000000000000000, 1.000000000000000000 ) ) ;
#213 = ADVANCED_FACE ( 'NONE', ( #196, #26 ), #56, .T. ) ;
#214 = DIRECTION ( 'NONE',  ( -4.275831445896958607E-31, -1.000000000000000000, -1.224646799147353207E-16 ) ) ;
#215 = PRODUCT_DEFINITION_SHAPE ( 'NONE', 'NONE',  #74 ) ;
#216 = DIRECTION ( 'NONE',  ( -3.491481338843133355E-15, 1.224646799147353207E-16, -1.000000000000000000 ) ) ;
#217 = PLANE ( 'NONE',  #87 ) ;
#218 = MECHANICAL_CONTEXT ( 'NONE', #158, 'mechanical' ) ;
#219 = CC_DESIGN_PERSON_AND_ORGANIZATION_ASSIGNMENT ( #120, #188, ( #116 ) ) ;
#220 = PERSON_AND_ORGANIZATION_ROLE ( 'design_owner' ) ;
#221 = CALENDAR_DATE ( 2021, 10, 11 ) ;
#222 = CLOSED_SHELL ( 'NONE', ( #213, #83, #154, #85, #38 ) ) ;
#223 = COORDINATED_UNIVERSAL_TIME_OFFSET ( 1, 0, .AHEAD. ) ;
ENDSEC;
END-ISO-10303-21;
