ISO-10303-21;
HEADER;
FILE_DESCRIPTION (( 'STEP AP203' ),
    '1' );
FILE_NAME ('63814.step',
    '2021-11-10T06:36:37',
    ( '' ),
    ( '' ),
    'SwSTEP 2.0',
    'SolidWorks 2019',
    '' );
FILE_SCHEMA (( 'CONFIG_CONTROL_DESIGN' ));
ENDSEC;

DATA;
#1 = APPROVAL_PERSON_ORGANIZATION ( #94, #130, #3 ) ;
#2 = SECURITY_CLASSIFICATION_LEVEL ( 'unclassified' ) ;
#3 = APPROVAL_ROLE ( '' ) ;
#4 = DIRECTION ( 'NONE',  ( -4.275831445896958607E-31, -1.000000000000000000, -1.224646799147353207E-16 ) ) ;
#5 = CARTESIAN_POINT ( 'NONE',  ( 5.760944209091170036E-15, -2.385244779468116164E-16, 1.649999999999999911 ) ) ;
#6 = DIRECTION ( 'NONE',  ( 1.000000000000000000, 0.0000000000000000000, -3.491481338843133355E-15 ) ) ;
#7 = EDGE_LOOP ( 'NONE', ( #21 ) ) ;
#8 = DIRECTION ( 'NONE',  ( 3.491481338843133355E-15, -0.0000000000000000000, 1.000000000000000000 ) ) ;
#9 = AXIS2_PLACEMENT_3D ( 'NONE', #40, #12, #113 ) ;
#10 = EDGE_CURVE ( 'NONE', #43, #43, #220, .T. ) ;
#11 = VERTEX_POINT ( 'NONE', #134 ) ;
#12 = DIRECTION ( 'NONE',  ( 0.0000000000000000000, 0.0000000000000000000, 1.000000000000000000 ) ) ;
#13 = CALENDAR_DATE ( 2021, 10, 11 ) ;
#14 = DIRECTION ( 'NONE',  ( 3.491481338843133355E-15, -0.0000000000000000000, 1.000000000000000000 ) ) ;
#15 = PERSON_AND_ORGANIZATION ( #182, #152 ) ;
#16 = APPROVAL_PERSON_ORGANIZATION ( #149, #24, #221 ) ;
#17 = AXIS2_PLACEMENT_3D ( 'NONE', #111, #8, #6 ) ;
#18 = CYLINDRICAL_SURFACE ( 'NONE', #20, 1.499999999999996447 ) ;
#19 = DIRECTION ( 'NONE',  ( 1.000000000000000000, 0.0000000000000000000, -3.416879573893713788E-15 ) ) ;
#20 = AXIS2_PLACEMENT_3D ( 'NONE', #108, #54, #128 ) ;
#21 = ORIENTED_EDGE ( 'NONE', *, *, #207, .F. ) ;
#22 = FACE_OUTER_BOUND ( 'NONE', #175, .T. ) ;
#23 = FACE_BOUND ( 'NONE', #106, .T. ) ;
#24 = APPROVAL ( #25, 'UNSPECIFIED' ) ;
#25 = APPROVAL_STATUS ( 'not_yet_approved' ) ;
#26 = DIRECTION ( 'NONE',  ( 0.0000000000000000000, 1.000000000000000000, 0.0000000000000000000 ) ) ;
#27 = AXIS2_PLACEMENT_3D ( 'NONE', #74, #158, #4 ) ;
#28 = DIRECTION ( 'NONE',  ( -1.000000000000000000, 0.0000000000000000000, 3.469446951953622472E-15 ) ) ;
#29 = TOROIDAL_SURFACE ( 'NONE', #180, 8.824999999999999289, 8.000000000000000000 ) ;
#30 = EDGE_LOOP ( 'NONE', ( #141 ) ) ;
#31 = CC_DESIGN_PERSON_AND_ORGANIZATION_ASSIGNMENT ( #62, #41, ( #138 ) ) ;
#32 = CC_DESIGN_APPROVAL ( #130, ( #87 ) ) ;
#33 = EDGE_LOOP ( 'NONE', ( #50 ) ) ;
#34 = DIRECTION ( 'NONE',  ( -4.275831445896958607E-31, -1.000000000000000000, -1.224646799147353207E-16 ) ) ;
#35 = FACE_OUTER_BOUND ( 'NONE', #73, .T. ) ;
#36 = CC_DESIGN_PERSON_AND_ORGANIZATION_ASSIGNMENT ( #119, #102, ( #87 ) ) ;
#37 = AXIS2_PLACEMENT_3D ( 'NONE', #129, #218, #204 ) ;
#38 = CARTESIAN_POINT ( 'NONE',  ( 0.0000000000000000000, 0.0000000000000000000, 0.0000000000000000000 ) ) ;
#39 = ORIENTED_EDGE ( 'NONE', *, *, #120, .T. ) ;
#40 = CARTESIAN_POINT ( 'NONE',  ( 0.0000000000000000000, 0.0000000000000000000, 0.0000000000000000000 ) ) ;
#41 = PERSON_AND_ORGANIZATION_ROLE ( 'design_owner' ) ;
#42 = APPROVAL_PERSON_ORGANIZATION ( #193, #51, #58 ) ;
#43 = VERTEX_POINT ( 'NONE', #59 ) ;
#44 = ADVANCED_FACE ( 'NONE', ( #22, #157 ), #18, .T. ) ;
#45 = CARTESIAN_POINT ( 'NONE',  ( 1.699048128048505213E-14, 0.0000000000000000000, 4.866267246358725984 ) ) ;
#46 = MANIFOLD_SOLID_BREP ( 'Corps-Déplacer/Copier1[2]', #131 ) ;
#47 = CARTESIAN_POINT ( 'NONE',  ( 5.760944209091168458E-15, 0.0000000000000000000, 1.649999999999999467 ) ) ;
#48 = CIRCLE ( 'NONE', #212, 0.8249999999999992895 ) ;
#49 = PLANE ( 'NONE',  #155 ) ;
#50 = ORIENTED_EDGE ( 'NONE', *, *, #159, .F. ) ;
#51 = APPROVAL ( #186, 'UNSPECIFIED' ) ;
#52 = DIRECTION ( 'NONE',  ( 3.491481338843133355E-15, -1.224646799147353207E-16, 1.000000000000000000 ) ) ;
#53 = LOCAL_TIME ( 7, 36, 37.00000000000000000, #135 ) ;
#54 = DIRECTION ( 'NONE',  ( -3.491481338843133355E-15, 1.224646799147353207E-16, -1.000000000000000000 ) ) ;
#55 = APPROVAL_DATE_TIME ( #199, #51 ) ;
#56 = APPROVAL_STATUS ( 'not_yet_approved' ) ;
#57 =( NAMED_UNIT ( * ) SI_UNIT ( $, .STERADIAN. ) SOLID_ANGLE_UNIT ( ) );
#58 = APPROVAL_ROLE ( '' ) ;
#59 = CARTESIAN_POINT ( 'NONE',  ( 0.8249999999999999556, 0.0000000000000000000, -2.880472104545585018E-15 ) ) ;
#60 = AXIS2_PLACEMENT_3D ( 'NONE', #38, #88, #146 ) ;
#61 = APPROVAL_DATE_TIME ( #167, #24 ) ;
#62 = PERSON_AND_ORGANIZATION ( #182, #152 ) ;
#63 = PERSON_AND_ORGANIZATION ( #182, #152 ) ;
#64 = COORDINATED_UNIVERSAL_TIME_OFFSET ( 1, 0, .AHEAD. ) ;
#65 = EDGE_LOOP ( 'NONE', ( #163 ) ) ;
#66 =( GEOMETRIC_REPRESENTATION_CONTEXT ( 3 ) GLOBAL_UNCERTAINTY_ASSIGNED_CONTEXT ( ( #176 ) ) GLOBAL_UNIT_ASSIGNED_CONTEXT ( ( #171, #116, #57 ) ) REPRESENTATION_CONTEXT ( 'NONE', 'WORKASPACE' ) );
#67 = APPROVAL_DATE_TIME ( #174, #130 ) ;
#68 = DATE_AND_TIME ( #161, #140 ) ;
#69 = DIRECTION ( 'NONE',  ( 1.000000000000000000, 0.0000000000000000000, -3.491481338843133355E-15 ) ) ;
#70 = ADVANCED_FACE ( 'NONE', ( #164 ), #213, .F. ) ;
#71 = ADVANCED_FACE ( 'NONE', ( #35, #23 ), #188, .T. ) ;
#72 = CC_DESIGN_APPROVAL ( #51, ( #122 ) ) ;
#73 = EDGE_LOOP ( 'NONE', ( #126 ) ) ;
#74 = CARTESIAN_POINT ( 'NONE',  ( -6.413803915257457113E-31, 2.249659577954772199E-32, -1.836986451539393076E-16 ) ) ;
#75 = ORIENTED_EDGE ( 'NONE', *, *, #120, .F. ) ;
#76 = AXIS2_PLACEMENT_3D ( 'NONE', #169, #14, #189 ) ;
#77 = ADVANCED_FACE ( 'NONE', ( #93, #197 ), #95, .T. ) ;
#78 = VERTEX_POINT ( 'NONE', #203 ) ;
#79 = DIRECTION ( 'NONE',  ( -4.275831445896958607E-31, -1.000000000000000000, -1.224646799147353207E-16 ) ) ;
#80 = CC_DESIGN_PERSON_AND_ORGANIZATION_ASSIGNMENT ( #63, #223, ( #101 ) ) ;
#81 = DIRECTION ( 'NONE',  ( 4.275831445896958607E-31, 1.000000000000000000, 1.224646799147353207E-16 ) ) ;
#82 = AXIS2_PLACEMENT_3D ( 'NONE', #117, #187, #26 ) ;
#83 = VERTEX_POINT ( 'NONE', #100 ) ;
#84 = DATE_AND_TIME ( #206, #53 ) ;
#85 = AXIS2_PLACEMENT_3D ( 'NONE', #45, #148, #28 ) ;
#86 = CALENDAR_DATE ( 2021, 10, 11 ) ;
#87 = PRODUCT_DEFINITION_FORMATION_WITH_SPECIFIED_SOURCE ( 'ANY', '', #138, .NOT_KNOWN. ) ;
#88 = DIRECTION ( 'NONE',  ( 3.491481338843133355E-15, -0.0000000000000000000, 1.000000000000000000 ) ) ;
#89 = DESIGN_CONTEXT ( 'detailed design', #168, 'design' ) ;
#90 = PLANE ( 'NONE',  #205 ) ;
#91 = DIRECTION ( 'NONE',  ( 0.0000000000000000000, 1.000000000000000000, 0.0000000000000000000 ) ) ;
#92 = COORDINATED_UNIVERSAL_TIME_OFFSET ( 1, 0, .AHEAD. ) ;
#93 = FACE_OUTER_BOUND ( 'NONE', #216, .T. ) ;
#94 = PERSON_AND_ORGANIZATION ( #182, #152 ) ;
#95 = CYLINDRICAL_SURFACE ( 'NONE', #17, 0.8249999999999996225 ) ;
#96 = CLOSED_SHELL ( 'NONE', ( #44, #71, #202, #104, #110 ) ) ;
#97 = MECHANICAL_CONTEXT ( 'NONE', #172, 'mechanical' ) ;
#98 = CALENDAR_DATE ( 2021, 10, 11 ) ;
#99 = PLANE ( 'NONE',  #196 ) ;
#100 = CARTESIAN_POINT ( 'NONE',  ( 0.8250000000000050626, 0.0000000000000000000, 1.649999999999995692 ) ) ;
#101 = PRODUCT_DEFINITION ( 'UNKNOWN', '', #87, #89 ) ;
#102 = PERSON_AND_ORGANIZATION_ROLE ( 'creator' ) ;
#103 = CC_DESIGN_PERSON_AND_ORGANIZATION_ASSIGNMENT ( #112, #125, ( #122 ) ) ;
#104 = ADVANCED_FACE ( 'NONE', ( #183, #143 ), #29, .F. ) ;
#105 = PRODUCT_DEFINITION_SHAPE ( 'NONE', 'NONE',  #101 ) ;
#106 = EDGE_LOOP ( 'NONE', ( #121 ) ) ;
#107 = CARTESIAN_POINT ( 'NONE',  ( 5.760944209091164514E-15, 0.0000000000000000000, 1.649999999999998579 ) ) ;
#108 = CARTESIAN_POINT ( 'NONE',  ( 0.0000000000000000000, 0.0000000000000000000, 0.0000000000000000000 ) ) ;
#109 = EDGE_LOOP ( 'NONE', ( #124 ) ) ;
#110 = ADVANCED_FACE ( 'NONE', ( #139 ), #49, .F. ) ;
#111 = CARTESIAN_POINT ( 'NONE',  ( 0.0000000000000000000, 0.0000000000000000000, 0.0000000000000000000 ) ) ;
#112 = PERSON_AND_ORGANIZATION ( #182, #152 ) ;
#113 = DIRECTION ( 'NONE',  ( 1.000000000000000000, 0.0000000000000000000, 0.0000000000000000000 ) ) ;
#114 = SHAPE_DEFINITION_REPRESENTATION ( #105, #190 ) ;
#115 = CIRCLE ( 'NONE', #85, 1.499999999999996447 ) ;
#116 =( NAMED_UNIT ( * ) PLANE_ANGLE_UNIT ( ) SI_UNIT ( $, .RADIAN. ) );
#117 = CARTESIAN_POINT ( 'NONE',  ( 1.326762908760390423E-13, -4.653657836759941941E-15, 38.00000000000000000 ) ) ;
#118 = FACE_OUTER_BOUND ( 'NONE', #33, .T. ) ;
#119 = PERSON_AND_ORGANIZATION ( #182, #152 ) ;
#120 = EDGE_CURVE ( 'NONE', #83, #83, #48, .T. ) ;
#121 = ORIENTED_EDGE ( 'NONE', *, *, #159, .T. ) ;
#122 = SECURITY_CLASSIFICATION ( '', '', #2 ) ;
#123 = CARTESIAN_POINT ( 'NONE',  ( 5.760944209091170036E-15, -2.385244779468116164E-16, 1.649999999999999911 ) ) ;
#124 = ORIENTED_EDGE ( 'NONE', *, *, #178, .T. ) ;
#125 = PERSON_AND_ORGANIZATION_ROLE ( 'classification_officer' ) ;
#126 = ORIENTED_EDGE ( 'NONE', *, *, #156, .F. ) ;
#127 = LOCAL_TIME ( 7, 36, 37.00000000000000000, #222 ) ;
#128 = DIRECTION ( 'NONE',  ( 4.275831445896958607E-31, 1.000000000000000000, 1.224646799147352961E-16 ) ) ;
#129 = CARTESIAN_POINT ( 'NONE',  ( 1.316288464743861212E-13, -4.616918432785521081E-15, 37.69999999999999574 ) ) ;
#130 = APPROVAL ( #56, 'UNSPECIFIED' ) ;
#131 = CLOSED_SHELL ( 'NONE', ( #150, #77, #70 ) ) ;
#132 = VERTEX_POINT ( 'NONE', #217 ) ;
#133 = CARTESIAN_POINT ( 'NONE',  ( -1.499999999999979350, 0.0000000000000000000, 4.866267246358730425 ) ) ;
#134 = CARTESIAN_POINT ( 'NONE',  ( 1.316288464743861212E-13, 1.499999999999994005, 37.69999999999999574 ) ) ;
#135 = COORDINATED_UNIVERSAL_TIME_OFFSET ( 1, 0, .AHEAD. ) ;
#136 = LOCAL_TIME ( 7, 36, 37.00000000000000000, #64 ) ;
#137 = ORIENTED_EDGE ( 'NONE', *, *, #156, .T. ) ;
#138 = PRODUCT ( '63814', '63814', '', ( #97 ) ) ;
#139 = FACE_OUTER_BOUND ( 'NONE', #210, .T. ) ;
#140 = LOCAL_TIME ( 7, 36, 37.00000000000000000, #92 ) ;
#141 = ORIENTED_EDGE ( 'NONE', *, *, #207, .T. ) ;
#142 = CC_DESIGN_PERSON_AND_ORGANIZATION_ASSIGNMENT ( #15, #153, ( #87 ) ) ;
#143 = FACE_OUTER_BOUND ( 'NONE', #109, .T. ) ;
#144 = DATE_TIME_ROLE ( 'classification_date' ) ;
#145 = PRODUCT_RELATED_PRODUCT_CATEGORY ( 'detail', '', ( #138 ) ) ;
#146 = DIRECTION ( 'NONE',  ( 1.000000000000000000, 0.0000000000000000000, -3.491481338843133355E-15 ) ) ;
#147 = CIRCLE ( 'NONE', #76, 0.8249999999999992895 ) ;
#148 = DIRECTION ( 'NONE',  ( -3.491481338843133355E-15, 0.0000000000000000000, -1.000000000000000000 ) ) ;
#149 = PERSON_AND_ORGANIZATION ( #182, #152 ) ;
#150 = ADVANCED_FACE ( 'NONE', ( #215 ), #90, .T. ) ;
#151 = DATE_TIME_ROLE ( 'creation_date' ) ;
#152 = ORGANIZATION ( 'UNSPECIFIED', 'UNSPECIFIED', '' ) ;
#153 = PERSON_AND_ORGANIZATION_ROLE ( 'design_supplier' ) ;
#154 = EDGE_LOOP ( 'NONE', ( #181 ) ) ;
#155 = AXIS2_PLACEMENT_3D ( 'NONE', #123, #194, #34 ) ;
#156 = EDGE_CURVE ( 'NONE', #11, #11, #165, .T. ) ;
#157 = FACE_OUTER_BOUND ( 'NONE', #65, .T. ) ;
#158 = DIRECTION ( 'NONE',  ( 3.491481338843133355E-15, -1.224646799147353207E-16, 1.000000000000000000 ) ) ;
#159 = EDGE_CURVE ( 'NONE', #78, #78, #184, .T. ) ;
#160 = DIRECTION ( 'NONE',  ( -3.491481338843133355E-15, 1.224646799147353207E-16, -1.000000000000000000 ) ) ;
#161 = CALENDAR_DATE ( 2021, 10, 11 ) ;
#162 = CC_DESIGN_DATE_AND_TIME_ASSIGNMENT ( #68, #144, ( #122 ) ) ;
#163 = ORIENTED_EDGE ( 'NONE', *, *, #178, .F. ) ;
#164 = FACE_OUTER_BOUND ( 'NONE', #154, .T. ) ;
#165 = CIRCLE ( 'NONE', #37, 1.499999999999998446 ) ;
#166 = DIRECTION ( 'NONE',  ( -3.491481338843133355E-15, 1.224646799147353207E-16, -1.000000000000000000 ) ) ;
#167 = DATE_AND_TIME ( #98, #127 ) ;
#168 = APPLICATION_CONTEXT ( 'configuration controlled 3d designs of mechanical parts and assemblies' ) ;
#169 = CARTESIAN_POINT ( 'NONE',  ( 5.760944209091164514E-15, 0.0000000000000000000, 1.649999999999998579 ) ) ;
#170 = CARTESIAN_POINT ( 'NONE',  ( 1.326762908760390423E-13, 8.998558695971069014E-33, 38.00000000000000000 ) ) ;
#171 =( LENGTH_UNIT ( ) NAMED_UNIT ( * ) SI_UNIT ( .MILLI., .METRE. ) );
#172 = APPLICATION_CONTEXT ( 'configuration controlled 3d designs of mechanical parts and assemblies' ) ;
#173 = LOCAL_TIME ( 7, 36, 37.00000000000000000, #198 ) ;
#174 = DATE_AND_TIME ( #86, #136 ) ;
#175 = EDGE_LOOP ( 'NONE', ( #137 ) ) ;
#176 = UNCERTAINTY_MEASURE_WITH_UNIT (LENGTH_MEASURE( 1.000000000000000082E-05 ), #171, 'distance_accuracy_value', 'NONE');
#177 = DIRECTION ( 'NONE',  ( 3.491481338843133355E-15, -0.0000000000000000000, 1.000000000000000000 ) ) ;
#178 = EDGE_CURVE ( 'NONE', #219, #219, #115, .T. ) ;
#179 = ORIENTED_EDGE ( 'NONE', *, *, #10, .T. ) ;
#180 = AXIS2_PLACEMENT_3D ( 'NONE', #47, #195, #69 ) ;
#181 = ORIENTED_EDGE ( 'NONE', *, *, #10, .F. ) ;
#182 = PERSON ( 'UNSPECIFIED', 'UNSPECIFIED', 'UNSPECIFIED', ('UNSPECIFIED'), ('UNSPECIFIED'), ('UNSPECIFIED') ) ;
#183 = FACE_OUTER_BOUND ( 'NONE', #214, .T. ) ;
#184 = CIRCLE ( 'NONE', #82, 1.199999999999998845 ) ;
#185 = APPLICATION_PROTOCOL_DEFINITION ( 'international standard', 'config_control_design', 1994, #168 ) ;
#186 = APPROVAL_STATUS ( 'not_yet_approved' ) ;
#187 = DIRECTION ( 'NONE',  ( -3.491481338843133355E-15, 1.224646799147353207E-16, -1.000000000000000000 ) ) ;
#188 = CONICAL_SURFACE ( 'NONE', #209, 1.199999999999998845, 0.7853981633974450594 ) ;
#189 = DIRECTION ( 'NONE',  ( 1.000000000000000000, 0.0000000000000000000, -3.416879573893713788E-15 ) ) ;
#190 = ADVANCED_BREP_SHAPE_REPRESENTATION ( '63814', ( #208, #46, #9 ), #66 ) ;
#191 = CC_DESIGN_APPROVAL ( #24, ( #101 ) ) ;
#192 = CARTESIAN_POINT ( 'NONE',  ( 1.326762908760390423E-13, -4.653657836759941941E-15, 38.00000000000000000 ) ) ;
#193 = PERSON_AND_ORGANIZATION ( #182, #152 ) ;
#194 = DIRECTION ( 'NONE',  ( 3.491481338843133355E-15, -1.224646799147353207E-16, 1.000000000000000000 ) ) ;
#195 = DIRECTION ( 'NONE',  ( 3.491481338843133355E-15, -0.0000000000000000000, 1.000000000000000000 ) ) ;
#196 = AXIS2_PLACEMENT_3D ( 'NONE', #170, #166, #81 ) ;
#197 = FACE_OUTER_BOUND ( 'NONE', #7, .T. ) ;
#198 = COORDINATED_UNIVERSAL_TIME_OFFSET ( 1, 0, .AHEAD. ) ;
#199 = DATE_AND_TIME ( #13, #173 ) ;
#200 = APPLICATION_PROTOCOL_DEFINITION ( 'international standard', 'config_control_design', 1994, #172 ) ;
#201 = CC_DESIGN_SECURITY_CLASSIFICATION ( #122, ( #87 ) ) ;
#202 = ADVANCED_FACE ( 'NONE', ( #118 ), #99, .F. ) ;
#203 = CARTESIAN_POINT ( 'NONE',  ( 1.326762908760390423E-13, 1.199999999999994182, 38.00000000000000000 ) ) ;
#204 = DIRECTION ( 'NONE',  ( 0.0000000000000000000, 1.000000000000000000, 0.0000000000000000000 ) ) ;
#205 = AXIS2_PLACEMENT_3D ( 'NONE', #5, #52, #79 ) ;
#206 = CALENDAR_DATE ( 2021, 10, 11 ) ;
#207 = EDGE_CURVE ( 'NONE', #132, #132, #147, .T. ) ;
#208 = MANIFOLD_SOLID_BREP ( 'Corps-Déplacer/Copier1[1]', #96 ) ;
#209 = AXIS2_PLACEMENT_3D ( 'NONE', #192, #160, #91 ) ;
#210 = EDGE_LOOP ( 'NONE', ( #75 ) ) ;
#211 = CC_DESIGN_DATE_AND_TIME_ASSIGNMENT ( #84, #151, ( #101 ) ) ;
#212 = AXIS2_PLACEMENT_3D ( 'NONE', #107, #177, #19 ) ;
#213 = PLANE ( 'NONE',  #27 ) ;
#214 = EDGE_LOOP ( 'NONE', ( #39 ) ) ;
#215 = FACE_OUTER_BOUND ( 'NONE', #30, .T. ) ;
#216 = EDGE_LOOP ( 'NONE', ( #179 ) ) ;
#217 = CARTESIAN_POINT ( 'NONE',  ( 0.8250000000000050626, 0.0000000000000000000, 1.649999999999995692 ) ) ;
#218 = DIRECTION ( 'NONE',  ( -3.491481338843133355E-15, 1.224646799147353207E-16, -1.000000000000000000 ) ) ;
#219 = VERTEX_POINT ( 'NONE', #133 ) ;
#220 = CIRCLE ( 'NONE', #60, 0.8249999999999999556 ) ;
#221 = APPROVAL_ROLE ( '' ) ;
#222 = COORDINATED_UNIVERSAL_TIME_OFFSET ( 1, 0, .AHEAD. ) ;
#223 = PERSON_AND_ORGANIZATION_ROLE ( 'creator' ) ;
ENDSEC;
END-ISO-10303-21;
