ISO-10303-21;
HEADER;
FILE_DESCRIPTION (( 'STEP AP203' ),
    '1' );
FILE_NAME ('63813.step',
    '2021-11-10T06:36:36',
    ( '' ),
    ( '' ),
    'SwSTEP 2.0',
    'SolidWorks 2019',
    '' );
FILE_SCHEMA (( 'CONFIG_CONTROL_DESIGN' ));
ENDSEC;

DATA;
#1 = CIRCLE ( 'NONE', #89, 0.8000000000000003775 ) ;
#2 = DIRECTION ( 'NONE',  ( 3.491481338843133355E-15, -1.224646799147353207E-16, 1.000000000000000000 ) ) ;
#3 = PERSON_AND_ORGANIZATION ( #128, #221 ) ;
#4 = APPROVAL_STATUS ( 'not_yet_approved' ) ;
#5 = PLANE ( 'NONE',  #135 ) ;
#6 = TOROIDAL_SURFACE ( 'NONE', #204, 8.800000000000000711, 8.000000000000000000 ) ;
#7 = DATE_AND_TIME ( #211, #93 ) ;
#8 = APPROVAL_ROLE ( '' ) ;
#9 = APPROVAL_ROLE ( '' ) ;
#10 = CC_DESIGN_PERSON_AND_ORGANIZATION_ASSIGNMENT ( #57, #42, ( #29 ) ) ;
#11 = CC_DESIGN_APPROVAL ( #185, ( #146 ) ) ;
#12 = EDGE_CURVE ( 'NONE', #158, #158, #40, .T. ) ;
#13 = APPROVAL_DATE_TIME ( #46, #106 ) ;
#14 = CARTESIAN_POINT ( 'NONE',  ( 5.586370142149007846E-15, 0.0000000000000000000, 1.599999999999998312 ) ) ;
#15 = DIRECTION ( 'NONE',  ( -4.275831445896958607E-31, -1.000000000000000000, -1.224646799147353207E-16 ) ) ;
#16 = ORIENTED_EDGE ( 'NONE', *, *, #91, .F. ) ;
#17 = CARTESIAN_POINT ( 'NONE',  ( 5.586370142149007846E-15, 0.0000000000000000000, 1.599999999999998312 ) ) ;
#18 = FACE_BOUND ( 'NONE', #152, .T. ) ;
#19 = CALENDAR_DATE ( 2021, 10, 11 ) ;
#20 = DIRECTION ( 'NONE',  ( -4.275831445896958607E-31, -1.000000000000000000, -1.224646799147353207E-16 ) ) ;
#21 = CC_DESIGN_DATE_AND_TIME_ASSIGNMENT ( #213, #104, ( #79 ) ) ;
#22 = CC_DESIGN_SECURITY_CLASSIFICATION ( #79, ( #146 ) ) ;
#23 = VERTEX_POINT ( 'NONE', #101 ) ;
#24 = APPROVAL_PERSON_ORGANIZATION ( #145, #185, #9 ) ;
#25 = ADVANCED_FACE ( 'NONE', ( #78, #18 ), #162, .T. ) ;
#26 = CALENDAR_DATE ( 2021, 10, 11 ) ;
#27 = EDGE_LOOP ( 'NONE', ( #203 ) ) ;
#28 = AXIS2_PLACEMENT_3D ( 'NONE', #129, #63, #166 ) ;
#29 = PRODUCT_DEFINITION ( 'UNKNOWN', '', #146, #189 ) ;
#30 = FACE_OUTER_BOUND ( 'NONE', #196, .T. ) ;
#31 = ADVANCED_FACE ( 'NONE', ( #176, #223 ), #6, .F. ) ;
#32 = ORIENTED_EDGE ( 'NONE', *, *, #12, .T. ) ;
#33 = DIRECTION ( 'NONE',  ( 0.0000000000000000000, 1.000000000000000000, 0.0000000000000000000 ) ) ;
#34 =( GEOMETRIC_REPRESENTATION_CONTEXT ( 3 ) GLOBAL_UNCERTAINTY_ASSIGNED_CONTEXT ( ( #140 ) ) GLOBAL_UNIT_ASSIGNED_CONTEXT ( ( #56, #87, #157 ) ) REPRESENTATION_CONTEXT ( 'NONE', 'WORKASPACE' ) );
#35 = AXIS2_PLACEMENT_3D ( 'NONE', #156, #68, #121 ) ;
#36 = FACE_OUTER_BOUND ( 'NONE', #174, .T. ) ;
#37 = ADVANCED_FACE ( 'NONE', ( #182, #94 ), #95, .T. ) ;
#38 = CARTESIAN_POINT ( 'NONE',  ( 0.8000000000000060396, 0.0000000000000000000, 1.599999999999995426 ) ) ;
#39 = PRODUCT ( '63813', '63813', '', ( #161 ) ) ;
#40 = CIRCLE ( 'NONE', #97, 0.8000000000000003775 ) ;
#41 = VERTEX_POINT ( 'NONE', #117 ) ;
#42 = PERSON_AND_ORGANIZATION_ROLE ( 'creator' ) ;
#43 = PERSON_AND_ORGANIZATION_ROLE ( 'design_supplier' ) ;
#44 = CALENDAR_DATE ( 2021, 10, 11 ) ;
#45 = ORIENTED_EDGE ( 'NONE', *, *, #123, .T. ) ;
#46 = DATE_AND_TIME ( #215, #160 ) ;
#47 = EDGE_LOOP ( 'NONE', ( #105 ) ) ;
#48 = APPROVAL ( #4, 'UNSPECIFIED' ) ;
#49 = FACE_OUTER_BOUND ( 'NONE', #222, .T. ) ;
#50 = DIRECTION ( 'NONE',  ( 3.491481338843133355E-15, -0.0000000000000000000, 1.000000000000000000 ) ) ;
#51 = CYLINDRICAL_SURFACE ( 'NONE', #103, 0.8000000000000001554 ) ;
#52 = ADVANCED_BREP_SHAPE_REPRESENTATION ( '63813', ( #202, #207, #35 ), #34 ) ;
#53 = VERTEX_POINT ( 'NONE', #186 ) ;
#54 = FACE_OUTER_BOUND ( 'NONE', #47, .T. ) ;
#55 = CIRCLE ( 'NONE', #181, 1.499999999999998446 ) ;
#56 =( LENGTH_UNIT ( ) NAMED_UNIT ( * ) SI_UNIT ( .MILLI., .METRE. ) );
#57 = PERSON_AND_ORGANIZATION ( #128, #221 ) ;
#58 = ADVANCED_FACE ( 'NONE', ( #36, #220 ), #51, .T. ) ;
#59 = DATE_TIME_ROLE ( 'creation_date' ) ;
#60 = APPROVAL_STATUS ( 'not_yet_approved' ) ;
#61 = LOCAL_TIME ( 7, 36, 36.00000000000000000, #195 ) ;
#62 = DIRECTION ( 'NONE',  ( 4.275831445896958607E-31, 1.000000000000000000, 1.224646799147352961E-16 ) ) ;
#63 = DIRECTION ( 'NONE',  ( 3.491481338843133355E-15, -0.0000000000000000000, 1.000000000000000000 ) ) ;
#64 = AXIS2_PLACEMENT_3D ( 'NONE', #77, #149, #167 ) ;
#65 = CARTESIAN_POINT ( 'NONE',  ( 5.586370142149011791E-15, 0.0000000000000000000, 1.599999999999999423 ) ) ;
#66 = DIRECTION ( 'NONE',  ( 3.491481338843133355E-15, -0.0000000000000000000, 1.000000000000000000 ) ) ;
#67 = CARTESIAN_POINT ( 'NONE',  ( 1.326762908760390423E-13, -4.653657836759941941E-15, 38.00000000000000000 ) ) ;
#68 = DIRECTION ( 'NONE',  ( 0.0000000000000000000, 0.0000000000000000000, 1.000000000000000000 ) ) ;
#69 = PERSON_AND_ORGANIZATION_ROLE ( 'design_owner' ) ;
#70 = CARTESIAN_POINT ( 'NONE',  ( 1.326762908760390423E-13, 8.998558695971069014E-33, 38.00000000000000000 ) ) ;
#71 = EDGE_CURVE ( 'NONE', #85, #85, #159, .T. ) ;
#72 = CIRCLE ( 'NONE', #198, 1.199999999999998845 ) ;
#73 = APPLICATION_PROTOCOL_DEFINITION ( 'international standard', 'config_control_design', 1994, #88 ) ;
#74 = VERTEX_POINT ( 'NONE', #118 ) ;
#75 = DATE_AND_TIME ( #44, #127 ) ;
#76 = CARTESIAN_POINT ( 'NONE',  ( 0.0000000000000000000, 0.0000000000000000000, 0.0000000000000000000 ) ) ;
#77 = CARTESIAN_POINT ( 'NONE',  ( 1.701263957586775682E-14, 0.0000000000000000000, 4.872613634390702941 ) ) ;
#78 = FACE_OUTER_BOUND ( 'NONE', #219, .T. ) ;
#79 = SECURITY_CLASSIFICATION ( '', '', #212 ) ;
#80 = ORIENTED_EDGE ( 'NONE', *, *, #91, .T. ) ;
#81 = DIRECTION ( 'NONE',  ( 3.491481338843133355E-15, -1.224646799147353207E-16, 1.000000000000000000 ) ) ;
#82 = DATE_AND_TIME ( #19, #180 ) ;
#83 = ADVANCED_FACE ( 'NONE', ( #30 ), #131, .F. ) ;
#84 = APPLICATION_PROTOCOL_DEFINITION ( 'international standard', 'config_control_design', 1994, #148 ) ;
#85 = VERTEX_POINT ( 'NONE', #99 ) ;
#86 = CC_DESIGN_APPROVAL ( #106, ( #79 ) ) ;
#87 =( NAMED_UNIT ( * ) PLANE_ANGLE_UNIT ( ) SI_UNIT ( $, .RADIAN. ) );
#88 = APPLICATION_CONTEXT ( 'configuration controlled 3d designs of mechanical parts and assemblies' ) ;
#89 = AXIS2_PLACEMENT_3D ( 'NONE', #17, #66, #178 ) ;
#90 = CC_DESIGN_PERSON_AND_ORGANIZATION_ASSIGNMENT ( #3, #69, ( #39 ) ) ;
#91 = EDGE_CURVE ( 'NONE', #41, #41, #55, .T. ) ;
#92 = DIRECTION ( 'NONE',  ( -3.491481338843133355E-15, 1.224646799147353207E-16, -1.000000000000000000 ) ) ;
#93 = LOCAL_TIME ( 7, 36, 36.00000000000000000, #116 ) ;
#94 = FACE_OUTER_BOUND ( 'NONE', #134, .T. ) ;
#95 = CYLINDRICAL_SURFACE ( 'NONE', #122, 1.499999999999996447 ) ;
#96 = EDGE_LOOP ( 'NONE', ( #216 ) ) ;
#97 = AXIS2_PLACEMENT_3D ( 'NONE', #14, #115, #201 ) ;
#98 = CARTESIAN_POINT ( 'NONE',  ( -6.413803915257457113E-31, 2.249659577954772199E-32, -1.836986451539393076E-16 ) ) ;
#99 = CARTESIAN_POINT ( 'NONE',  ( 0.8000000000000000444, 0.0000000000000000000, -2.793185071074506684E-15 ) ) ;
#100 = APPROVAL_PERSON_ORGANIZATION ( #173, #106, #8 ) ;
#101 = CARTESIAN_POINT ( 'NONE',  ( 1.326762908760390423E-13, 1.199999999999994182, 38.00000000000000000 ) ) ;
#102 = APPROVAL_DATE_TIME ( #7, #48 ) ;
#103 = AXIS2_PLACEMENT_3D ( 'NONE', #111, #50, #177 ) ;
#104 = DATE_TIME_ROLE ( 'classification_date' ) ;
#105 = ORIENTED_EDGE ( 'NONE', *, *, #12, .F. ) ;
#106 = APPROVAL ( #192, 'UNSPECIFIED' ) ;
#107 = PERSON_AND_ORGANIZATION_ROLE ( 'creator' ) ;
#108 = APPROVAL_DATE_TIME ( #75, #185 ) ;
#109 = PRODUCT_DEFINITION_SHAPE ( 'NONE', 'NONE',  #29 ) ;
#110 = ORIENTED_EDGE ( 'NONE', *, *, #154, .F. ) ;
#111 = CARTESIAN_POINT ( 'NONE',  ( 0.0000000000000000000, 0.0000000000000000000, 0.0000000000000000000 ) ) ;
#112 = PLANE ( 'NONE',  #194 ) ;
#113 = CARTESIAN_POINT ( 'NONE',  ( 1.316288464743861212E-13, -4.616918432785521081E-15, 37.69999999999999574 ) ) ;
#114 = AXIS2_PLACEMENT_3D ( 'NONE', #98, #81, #15 ) ;
#115 = DIRECTION ( 'NONE',  ( 3.491481338843133355E-15, -0.0000000000000000000, 1.000000000000000000 ) ) ;
#116 = COORDINATED_UNIVERSAL_TIME_OFFSET ( 1, 0, .AHEAD. ) ;
#117 = CARTESIAN_POINT ( 'NONE',  ( 1.316288464743861212E-13, 1.499999999999994005, 37.69999999999999574 ) ) ;
#118 = CARTESIAN_POINT ( 'NONE',  ( 0.8000000000000060396, 0.0000000000000000000, 1.599999999999995426 ) ) ;
#119 = CC_DESIGN_APPROVAL ( #48, ( #29 ) ) ;
#120 = CARTESIAN_POINT ( 'NONE',  ( 5.586370142149013368E-15, -2.312964634635748873E-16, 1.599999999999999867 ) ) ;
#121 = DIRECTION ( 'NONE',  ( 1.000000000000000000, 0.0000000000000000000, 0.0000000000000000000 ) ) ;
#122 = AXIS2_PLACEMENT_3D ( 'NONE', #76, #147, #62 ) ;
#123 = EDGE_CURVE ( 'NONE', #74, #74, #1, .T. ) ;
#124 = COORDINATED_UNIVERSAL_TIME_OFFSET ( 1, 0, .AHEAD. ) ;
#125 = ORIENTED_EDGE ( 'NONE', *, *, #133, .T. ) ;
#126 = SHAPE_DEFINITION_REPRESENTATION ( #109, #52 ) ;
#127 = LOCAL_TIME ( 7, 36, 36.00000000000000000, #124 ) ;
#128 = PERSON ( 'UNSPECIFIED', 'UNSPECIFIED', 'UNSPECIFIED', ('UNSPECIFIED'), ('UNSPECIFIED'), ('UNSPECIFIED') ) ;
#129 = CARTESIAN_POINT ( 'NONE',  ( 0.0000000000000000000, 0.0000000000000000000, 0.0000000000000000000 ) ) ;
#130 = EDGE_LOOP ( 'NONE', ( #80 ) ) ;
#131 = PLANE ( 'NONE',  #114 ) ;
#132 = ORIENTED_EDGE ( 'NONE', *, *, #154, .T. ) ;
#133 = EDGE_CURVE ( 'NONE', #23, #23, #72, .T. ) ;
#134 = EDGE_LOOP ( 'NONE', ( #110 ) ) ;
#135 = AXIS2_PLACEMENT_3D ( 'NONE', #70, #208, #187 ) ;
#136 = FACE_OUTER_BOUND ( 'NONE', #96, .T. ) ;
#137 = CC_DESIGN_PERSON_AND_ORGANIZATION_ASSIGNMENT ( #191, #43, ( #146 ) ) ;
#138 = APPROVAL_ROLE ( '' ) ;
#139 = CLOSED_SHELL ( 'NONE', ( #37, #25, #200, #31, #218 ) ) ;
#140 = UNCERTAINTY_MEASURE_WITH_UNIT (LENGTH_MEASURE( 1.000000000000000082E-05 ), #56, 'distance_accuracy_value', 'NONE');
#141 = DIRECTION ( 'NONE',  ( -4.275831445896958607E-31, -1.000000000000000000, -1.224646799147353207E-16 ) ) ;
#142 = PERSON_AND_ORGANIZATION ( #128, #221 ) ;
#143 = EDGE_LOOP ( 'NONE', ( #32 ) ) ;
#144 = COORDINATED_UNIVERSAL_TIME_OFFSET ( 1, 0, .AHEAD. ) ;
#145 = PERSON_AND_ORGANIZATION ( #128, #221 ) ;
#146 = PRODUCT_DEFINITION_FORMATION_WITH_SPECIFIED_SOURCE ( 'ANY', '', #39, .NOT_KNOWN. ) ;
#147 = DIRECTION ( 'NONE',  ( -3.491481338843133355E-15, 1.224646799147353207E-16, -1.000000000000000000 ) ) ;
#148 = APPLICATION_CONTEXT ( 'configuration controlled 3d designs of mechanical parts and assemblies' ) ;
#149 = DIRECTION ( 'NONE',  ( -3.491481338843133355E-15, 0.0000000000000000000, -1.000000000000000000 ) ) ;
#150 = CC_DESIGN_PERSON_AND_ORGANIZATION_ASSIGNMENT ( #142, #164, ( #79 ) ) ;
#151 = AXIS2_PLACEMENT_3D ( 'NONE', #197, #155, #33 ) ;
#152 = EDGE_LOOP ( 'NONE', ( #125 ) ) ;
#153 = EDGE_LOOP ( 'NONE', ( #132 ) ) ;
#154 = EDGE_CURVE ( 'NONE', #53, #53, #205, .T. ) ;
#155 = DIRECTION ( 'NONE',  ( -3.491481338843133355E-15, 1.224646799147353207E-16, -1.000000000000000000 ) ) ;
#156 = CARTESIAN_POINT ( 'NONE',  ( 0.0000000000000000000, 0.0000000000000000000, 0.0000000000000000000 ) ) ;
#157 =( NAMED_UNIT ( * ) SI_UNIT ( $, .STERADIAN. ) SOLID_ANGLE_UNIT ( ) );
#158 = VERTEX_POINT ( 'NONE', #38 ) ;
#159 = CIRCLE ( 'NONE', #28, 0.8000000000000000444 ) ;
#160 = LOCAL_TIME ( 7, 36, 36.00000000000000000, #144 ) ;
#161 = MECHANICAL_CONTEXT ( 'NONE', #88, 'mechanical' ) ;
#162 = CONICAL_SURFACE ( 'NONE', #151, 1.199999999999998845, 0.7853981633974450594 ) ;
#163 = CC_DESIGN_PERSON_AND_ORGANIZATION_ASSIGNMENT ( #217, #107, ( #146 ) ) ;
#164 = PERSON_AND_ORGANIZATION_ROLE ( 'classification_officer' ) ;
#165 = DIRECTION ( 'NONE',  ( 0.0000000000000000000, 1.000000000000000000, 0.0000000000000000000 ) ) ;
#166 = DIRECTION ( 'NONE',  ( 1.000000000000000000, 0.0000000000000000000, -3.491481338843133355E-15 ) ) ;
#167 = DIRECTION ( 'NONE',  ( -1.000000000000000000, 0.0000000000000000000, 3.469446951953622472E-15 ) ) ;
#168 = DIRECTION ( 'NONE',  ( -3.491481338843133355E-15, 1.224646799147353207E-16, -1.000000000000000000 ) ) ;
#169 = DIRECTION ( 'NONE',  ( 0.0000000000000000000, 1.000000000000000000, 0.0000000000000000000 ) ) ;
#170 = PRODUCT_RELATED_PRODUCT_CATEGORY ( 'detail', '', ( #39 ) ) ;
#171 = PLANE ( 'NONE',  #175 ) ;
#172 = CC_DESIGN_DATE_AND_TIME_ASSIGNMENT ( #82, #59, ( #29 ) ) ;
#173 = PERSON_AND_ORGANIZATION ( #128, #221 ) ;
#174 = EDGE_LOOP ( 'NONE', ( #206 ) ) ;
#175 = AXIS2_PLACEMENT_3D ( 'NONE', #120, #2, #141 ) ;
#176 = FACE_OUTER_BOUND ( 'NONE', #143, .T. ) ;
#177 = DIRECTION ( 'NONE',  ( 1.000000000000000000, 0.0000000000000000000, -3.491481338843133355E-15 ) ) ;
#178 = DIRECTION ( 'NONE',  ( 1.000000000000000000, 0.0000000000000000000, -3.523657060577887833E-15 ) ) ;
#179 = DIRECTION ( 'NONE',  ( 3.491481338843133355E-15, -0.0000000000000000000, 1.000000000000000000 ) ) ;
#180 = LOCAL_TIME ( 7, 36, 36.00000000000000000, #183 ) ;
#181 = AXIS2_PLACEMENT_3D ( 'NONE', #113, #168, #169 ) ;
#182 = FACE_OUTER_BOUND ( 'NONE', #130, .T. ) ;
#183 = COORDINATED_UNIVERSAL_TIME_OFFSET ( 1, 0, .AHEAD. ) ;
#184 = ADVANCED_FACE ( 'NONE', ( #49 ), #112, .T. ) ;
#185 = APPROVAL ( #60, 'UNSPECIFIED' ) ;
#186 = CARTESIAN_POINT ( 'NONE',  ( -1.499999999999979350, 0.0000000000000000000, 4.872613634390708270 ) ) ;
#187 = DIRECTION ( 'NONE',  ( 4.275831445896958607E-31, 1.000000000000000000, 1.224646799147353207E-16 ) ) ;
#188 = PERSON_AND_ORGANIZATION ( #128, #221 ) ;
#189 = DESIGN_CONTEXT ( 'detailed design', #148, 'design' ) ;
#190 = APPROVAL_PERSON_ORGANIZATION ( #188, #48, #138 ) ;
#191 = PERSON_AND_ORGANIZATION ( #128, #221 ) ;
#192 = APPROVAL_STATUS ( 'not_yet_approved' ) ;
#193 = ORIENTED_EDGE ( 'NONE', *, *, #71, .F. ) ;
#194 = AXIS2_PLACEMENT_3D ( 'NONE', #210, #209, #20 ) ;
#195 = COORDINATED_UNIVERSAL_TIME_OFFSET ( 1, 0, .AHEAD. ) ;
#196 = EDGE_LOOP ( 'NONE', ( #193 ) ) ;
#197 = CARTESIAN_POINT ( 'NONE',  ( 1.326762908760390423E-13, -4.653657836759941941E-15, 38.00000000000000000 ) ) ;
#198 = AXIS2_PLACEMENT_3D ( 'NONE', #67, #92, #165 ) ;
#199 = DIRECTION ( 'NONE',  ( 1.000000000000000000, 0.0000000000000000000, -3.491481338843133750E-15 ) ) ;
#200 = ADVANCED_FACE ( 'NONE', ( #136 ), #5, .F. ) ;
#201 = DIRECTION ( 'NONE',  ( 1.000000000000000000, 0.0000000000000000000, -3.523657060577887833E-15 ) ) ;
#202 = MANIFOLD_SOLID_BREP ( 'Corps-Déplacer/Copier1[1]', #139 ) ;
#203 = ORIENTED_EDGE ( 'NONE', *, *, #123, .F. ) ;
#204 = AXIS2_PLACEMENT_3D ( 'NONE', #65, #179, #199 ) ;
#205 = CIRCLE ( 'NONE', #64, 1.499999999999996447 ) ;
#206 = ORIENTED_EDGE ( 'NONE', *, *, #71, .T. ) ;
#207 = MANIFOLD_SOLID_BREP ( 'Corps-Déplacer/Copier1[2]', #214 ) ;
#208 = DIRECTION ( 'NONE',  ( -3.491481338843133355E-15, 1.224646799147353207E-16, -1.000000000000000000 ) ) ;
#209 = DIRECTION ( 'NONE',  ( 3.491481338843133355E-15, -1.224646799147353207E-16, 1.000000000000000000 ) ) ;
#210 = CARTESIAN_POINT ( 'NONE',  ( 5.586370142149013368E-15, -2.312964634635748873E-16, 1.599999999999999867 ) ) ;
#211 = CALENDAR_DATE ( 2021, 10, 11 ) ;
#212 = SECURITY_CLASSIFICATION_LEVEL ( 'unclassified' ) ;
#213 = DATE_AND_TIME ( #26, #61 ) ;
#214 = CLOSED_SHELL ( 'NONE', ( #184, #58, #83 ) ) ;
#215 = CALENDAR_DATE ( 2021, 10, 11 ) ;
#216 = ORIENTED_EDGE ( 'NONE', *, *, #133, .F. ) ;
#217 = PERSON_AND_ORGANIZATION ( #128, #221 ) ;
#218 = ADVANCED_FACE ( 'NONE', ( #54 ), #171, .F. ) ;
#219 = EDGE_LOOP ( 'NONE', ( #16 ) ) ;
#220 = FACE_OUTER_BOUND ( 'NONE', #27, .T. ) ;
#221 = ORGANIZATION ( 'UNSPECIFIED', 'UNSPECIFIED', '' ) ;
#222 = EDGE_LOOP ( 'NONE', ( #45 ) ) ;
#223 = FACE_OUTER_BOUND ( 'NONE', #153, .T. ) ;
ENDSEC;
END-ISO-10303-21;
