ISO-10303-21;
HEADER;
FILE_DESCRIPTION (( 'STEP AP203' ),
    '1' );
FILE_NAME ('63812.step',
    '2021-11-10T06:36:35',
    ( '' ),
    ( '' ),
    'SwSTEP 2.0',
    'SolidWorks 2019',
    '' );
FILE_SCHEMA (( 'CONFIG_CONTROL_DESIGN' ));
ENDSEC;

DATA;
#1 = PRODUCT_DEFINITION ( 'UNKNOWN', '', #120, #39 ) ;
#2 = CARTESIAN_POINT ( 'NONE',  ( 0.0000000000000000000, 0.0000000000000000000, 0.0000000000000000000 ) ) ;
#3 = AXIS2_PLACEMENT_3D ( 'NONE', #122, #177, #139 ) ;
#4 = FACE_OUTER_BOUND ( 'NONE', #107, .T. ) ;
#5 = DIRECTION ( 'NONE',  ( -3.491481338843133355E-15, 1.224646799147353207E-16, -1.000000000000000000 ) ) ;
#6 = AXIS2_PLACEMENT_3D ( 'NONE', #123, #140, #23 ) ;
#7 = SECURITY_CLASSIFICATION ( '', '', #145 ) ;
#8 = DIRECTION ( 'NONE',  ( 1.000000000000000000, 0.0000000000000000000, -3.491481338843132961E-15 ) ) ;
#9 = APPROVAL ( #189, 'UNSPECIFIED' ) ;
#10 = CARTESIAN_POINT ( 'NONE',  ( 0.7750000000000000222, 0.0000000000000000000, -2.705898037603428350E-15 ) ) ;
#11 = FACE_OUTER_BOUND ( 'NONE', #99, .T. ) ;
#12 =( LENGTH_UNIT ( ) NAMED_UNIT ( * ) SI_UNIT ( .MILLI., .METRE. ) );
#13 = CALENDAR_DATE ( 2021, 10, 11 ) ;
#14 = DIRECTION ( 'NONE',  ( 3.491481338843133355E-15, -0.0000000000000000000, 1.000000000000000000 ) ) ;
#15 = ORIENTED_EDGE ( 'NONE', *, *, #163, .T. ) ;
#16 = FACE_OUTER_BOUND ( 'NONE', #43, .T. ) ;
#17 = ORIENTED_EDGE ( 'NONE', *, *, #163, .F. ) ;
#18 = CARTESIAN_POINT ( 'NONE',  ( 5.411796075206854334E-15, 0.0000000000000000000, 1.549999999999999378 ) ) ;
#19 = AXIS2_PLACEMENT_3D ( 'NONE', #77, #212, #50 ) ;
#20 =( GEOMETRIC_REPRESENTATION_CONTEXT ( 3 ) GLOBAL_UNCERTAINTY_ASSIGNED_CONTEXT ( ( #111 ) ) GLOBAL_UNIT_ASSIGNED_CONTEXT ( ( #12, #223, #137 ) ) REPRESENTATION_CONTEXT ( 'NONE', 'WORKASPACE' ) );
#21 = PERSON_AND_ORGANIZATION_ROLE ( 'classification_officer' ) ;
#22 = PERSON_AND_ORGANIZATION ( #209, #181 ) ;
#23 = DIRECTION ( 'NONE',  ( 1.000000000000000000, 0.0000000000000000000, -3.357529308342208488E-15 ) ) ;
#24 = CIRCLE ( 'NONE', #130, 1.499999999999998446 ) ;
#25 = CC_DESIGN_DATE_AND_TIME_ASSIGNMENT ( #167, #83, ( #1 ) ) ;
#26 = VERTEX_POINT ( 'NONE', #207 ) ;
#27 = AXIS2_PLACEMENT_3D ( 'NONE', #173, #14, #192 ) ;
#28 = PRODUCT ( '63812', '63812', '', ( #30 ) ) ;
#29 = VERTEX_POINT ( 'NONE', #101 ) ;
#30 = MECHANICAL_CONTEXT ( 'NONE', #72, 'mechanical' ) ;
#31 = DATE_AND_TIME ( #104, #78 ) ;
#32 = ADVANCED_FACE ( 'NONE', ( #41, #59 ), #217, .T. ) ;
#33 = CALENDAR_DATE ( 2021, 10, 11 ) ;
#34 = APPROVAL_PERSON_ORGANIZATION ( #155, #210, #64 ) ;
#35 = ADVANCED_FACE ( 'NONE', ( #118 ), #184, .F. ) ;
#36 = DIRECTION ( 'NONE',  ( 1.000000000000000000, 0.0000000000000000000, -3.357529308342208488E-15 ) ) ;
#37 = LOCAL_TIME ( 7, 36, 35.00000000000000000, #117 ) ;
#38 = CARTESIAN_POINT ( 'NONE',  ( 5.411796075206850390E-15, 0.0000000000000000000, 1.549999999999998268 ) ) ;
#39 = DESIGN_CONTEXT ( 'detailed design', #103, 'design' ) ;
#40 = CC_DESIGN_APPROVAL ( #210, ( #120 ) ) ;
#41 = FACE_OUTER_BOUND ( 'NONE', #129, .T. ) ;
#42 = CARTESIAN_POINT ( 'NONE',  ( 1.326762908760390423E-13, 8.998558695971069014E-33, 38.00000000000000000 ) ) ;
#43 = EDGE_LOOP ( 'NONE', ( #187 ) ) ;
#44 = PERSON_AND_ORGANIZATION ( #209, #181 ) ;
#45 = MANIFOLD_SOLID_BREP ( 'Corps-Déplacer/Copier1[1]', #174 ) ;
#46 = DIRECTION ( 'NONE',  ( 4.275831445896958607E-31, 1.000000000000000000, 1.224646799147352961E-16 ) ) ;
#47 = CIRCLE ( 'NONE', #6, 0.7749999999999996891 ) ;
#48 = FACE_OUTER_BOUND ( 'NONE', #147, .T. ) ;
#49 = VERTEX_POINT ( 'NONE', #215 ) ;
#50 = DIRECTION ( 'NONE',  ( -4.275831445896958607E-31, -1.000000000000000000, -1.224646799147353207E-16 ) ) ;
#51 = COORDINATED_UNIVERSAL_TIME_OFFSET ( 1, 0, .AHEAD. ) ;
#52 = CARTESIAN_POINT ( 'NONE',  ( 1.326762908760390423E-13, -4.653657836759941941E-15, 38.00000000000000000 ) ) ;
#53 = CC_DESIGN_PERSON_AND_ORGANIZATION_ASSIGNMENT ( #22, #161, ( #120 ) ) ;
#54 = CC_DESIGN_SECURITY_CLASSIFICATION ( #7, ( #120 ) ) ;
#55 = SHAPE_DEFINITION_REPRESENTATION ( #154, #68 ) ;
#56 = ADVANCED_FACE ( 'NONE', ( #16 ), #162, .T. ) ;
#57 = DATE_AND_TIME ( #33, #164 ) ;
#58 = DATE_AND_TIME ( #13, #150 ) ;
#59 = FACE_OUTER_BOUND ( 'NONE', #203, .T. ) ;
#60 = VERTEX_POINT ( 'NONE', #149 ) ;
#61 = EDGE_LOOP ( 'NONE', ( #158 ) ) ;
#62 = CC_DESIGN_APPROVAL ( #148, ( #7 ) ) ;
#63 = ORIENTED_EDGE ( 'NONE', *, *, #159, .F. ) ;
#64 = APPROVAL_ROLE ( '' ) ;
#65 = EDGE_LOOP ( 'NONE', ( #96 ) ) ;
#66 = LOCAL_TIME ( 7, 36, 35.00000000000000000, #194 ) ;
#67 = EDGE_CURVE ( 'NONE', #60, #60, #114, .T. ) ;
#68 = ADVANCED_BREP_SHAPE_REPRESENTATION ( '63812', ( #45, #127, #168 ), #20 ) ;
#69 = ADVANCED_FACE ( 'NONE', ( #176 ), #144, .F. ) ;
#70 = EDGE_LOOP ( 'NONE', ( #74 ) ) ;
#71 = FACE_OUTER_BOUND ( 'NONE', #113, .T. ) ;
#72 = APPLICATION_CONTEXT ( 'configuration controlled 3d designs of mechanical parts and assemblies' ) ;
#73 = PERSON_AND_ORGANIZATION ( #209, #181 ) ;
#74 = ORIENTED_EDGE ( 'NONE', *, *, #121, .T. ) ;
#75 = DIRECTION ( 'NONE',  ( 3.491481338843133355E-15, -0.0000000000000000000, 1.000000000000000000 ) ) ;
#76 = CARTESIAN_POINT ( 'NONE',  ( 5.411796075206855912E-15, -2.240684489803382075E-16, 1.549999999999999822 ) ) ;
#77 = CARTESIAN_POINT ( 'NONE',  ( 5.411796075206855912E-15, -2.240684489803382075E-16, 1.549999999999999822 ) ) ;
#78 = LOCAL_TIME ( 7, 36, 35.00000000000000000, #51 ) ;
#79 = CARTESIAN_POINT ( 'NONE',  ( 1.326762908760390423E-13, -4.653657836759941941E-15, 38.00000000000000000 ) ) ;
#80 = APPROVAL_DATE_TIME ( #31, #210 ) ;
#81 = CYLINDRICAL_SURFACE ( 'NONE', #27, 0.7749999999999999112 ) ;
#82 = AXIS2_PLACEMENT_3D ( 'NONE', #2, #75, #95 ) ;
#83 = DATE_TIME_ROLE ( 'creation_date' ) ;
#84 = VERTEX_POINT ( 'NONE', #10 ) ;
#85 = CC_DESIGN_PERSON_AND_ORGANIZATION_ASSIGNMENT ( #204, #216, ( #28 ) ) ;
#86 = CALENDAR_DATE ( 2021, 10, 11 ) ;
#87 = ORIENTED_EDGE ( 'NONE', *, *, #193, .T. ) ;
#88 = AXIS2_PLACEMENT_3D ( 'NONE', #76, #131, #108 ) ;
#89 = CONICAL_SURFACE ( 'NONE', #132, 1.199999999999998845, 0.7853981633974450594 ) ;
#90 = PERSON_AND_ORGANIZATION ( #209, #181 ) ;
#91 = DIRECTION ( 'NONE',  ( 0.0000000000000000000, 1.000000000000000000, 0.0000000000000000000 ) ) ;
#92 = PERSON_AND_ORGANIZATION_ROLE ( 'creator' ) ;
#93 = EDGE_CURVE ( 'NONE', #26, #26, #47, .T. ) ;
#94 = APPROVAL_ROLE ( '' ) ;
#95 = DIRECTION ( 'NONE',  ( 1.000000000000000000, 0.0000000000000000000, -3.491481338843133355E-15 ) ) ;
#96 = ORIENTED_EDGE ( 'NONE', *, *, #93, .F. ) ;
#97 = CC_DESIGN_PERSON_AND_ORGANIZATION_ASSIGNMENT ( #73, #21, ( #7 ) ) ;
#98 = DIRECTION ( 'NONE',  ( 0.0000000000000000000, 0.0000000000000000000, 1.000000000000000000 ) ) ;
#99 = EDGE_LOOP ( 'NONE', ( #87 ) ) ;
#100 = APPLICATION_PROTOCOL_DEFINITION ( 'international standard', 'config_control_design', 1994, #103 ) ;
#101 = CARTESIAN_POINT ( 'NONE',  ( -1.499999999999979128, 0.0000000000000000000, 4.877818354417795987 ) ) ;
#102 = APPROVAL_ROLE ( '' ) ;
#103 = APPLICATION_CONTEXT ( 'configuration controlled 3d designs of mechanical parts and assemblies' ) ;
#104 = CALENDAR_DATE ( 2021, 10, 11 ) ;
#105 = APPROVAL_PERSON_ORGANIZATION ( #44, #9, #102 ) ;
#106 = CARTESIAN_POINT ( 'NONE',  ( 1.316288464743861212E-13, -4.616918432785521081E-15, 37.69999999999999574 ) ) ;
#107 = EDGE_LOOP ( 'NONE', ( #165 ) ) ;
#108 = DIRECTION ( 'NONE',  ( -4.275831445896958607E-31, -1.000000000000000000, -1.224646799147353207E-16 ) ) ;
#109 = PRODUCT_RELATED_PRODUCT_CATEGORY ( 'detail', '', ( #28 ) ) ;
#110 = CIRCLE ( 'NONE', #82, 0.7750000000000000222 ) ;
#111 = UNCERTAINTY_MEASURE_WITH_UNIT (LENGTH_MEASURE( 1.000000000000000082E-05 ), #12, 'distance_accuracy_value', 'NONE');
#112 = ADVANCED_FACE ( 'NONE', ( #4, #71 ), #222, .F. ) ;
#113 = EDGE_LOOP ( 'NONE', ( #197 ) ) ;
#114 = CIRCLE ( 'NONE', #119, 0.7749999999999996891 ) ;
#115 = PERSON_AND_ORGANIZATION ( #209, #181 ) ;
#116 = EDGE_LOOP ( 'NONE', ( #180 ) ) ;
#117 = COORDINATED_UNIVERSAL_TIME_OFFSET ( 1, 0, .AHEAD. ) ;
#118 = FACE_OUTER_BOUND ( 'NONE', #61, .T. ) ;
#119 = AXIS2_PLACEMENT_3D ( 'NONE', #38, #178, #36 ) ;
#120 = PRODUCT_DEFINITION_FORMATION_WITH_SPECIFIED_SOURCE ( 'ANY', '', #28, .NOT_KNOWN. ) ;
#121 = EDGE_CURVE ( 'NONE', #49, #49, #128, .T. ) ;
#122 = CARTESIAN_POINT ( 'NONE',  ( -6.413803915257457113E-31, 2.249659577954772199E-32, -1.836986451539393076E-16 ) ) ;
#123 = CARTESIAN_POINT ( 'NONE',  ( 5.411796075206850390E-15, 0.0000000000000000000, 1.549999999999998268 ) ) ;
#124 = CARTESIAN_POINT ( 'NONE',  ( 0.0000000000000000000, 0.0000000000000000000, 0.0000000000000000000 ) ) ;
#125 = DATE_AND_TIME ( #196, #66 ) ;
#126 = FACE_BOUND ( 'NONE', #70, .T. ) ;
#127 = MANIFOLD_SOLID_BREP ( 'Corps-Déplacer/Copier1[2]', #156 ) ;
#128 = CIRCLE ( 'NONE', #157, 1.199999999999998845 ) ;
#129 = EDGE_LOOP ( 'NONE', ( #15 ) ) ;
#130 = AXIS2_PLACEMENT_3D ( 'NONE', #106, #5, #91 ) ;
#131 = DIRECTION ( 'NONE',  ( 3.491481338843133355E-15, -1.224646799147353207E-16, 1.000000000000000000 ) ) ;
#132 = AXIS2_PLACEMENT_3D ( 'NONE', #52, #190, #205 ) ;
#133 = EDGE_LOOP ( 'NONE', ( #221 ) ) ;
#134 = PERSON_AND_ORGANIZATION_ROLE ( 'creator' ) ;
#135 = APPROVAL_PERSON_ORGANIZATION ( #90, #148, #94 ) ;
#136 = CARTESIAN_POINT ( 'NONE',  ( 0.0000000000000000000, 0.0000000000000000000, 0.0000000000000000000 ) ) ;
#137 =( NAMED_UNIT ( * ) SI_UNIT ( $, .STERADIAN. ) SOLID_ANGLE_UNIT ( ) );
#138 = APPROVAL_DATE_TIME ( #58, #9 ) ;
#139 = DIRECTION ( 'NONE',  ( -4.275831445896958607E-31, -1.000000000000000000, -1.224646799147353207E-16 ) ) ;
#140 = DIRECTION ( 'NONE',  ( 3.491481338843133355E-15, -0.0000000000000000000, 1.000000000000000000 ) ) ;
#141 = CC_DESIGN_PERSON_AND_ORGANIZATION_ASSIGNMENT ( #115, #134, ( #1 ) ) ;
#142 = AXIS2_PLACEMENT_3D ( 'NONE', #18, #179, #8 ) ;
#143 = CIRCLE ( 'NONE', #186, 1.499999999999996447 ) ;
#144 = PLANE ( 'NONE',  #19 ) ;
#145 = SECURITY_CLASSIFICATION_LEVEL ( 'unclassified' ) ;
#146 = DATE_TIME_ROLE ( 'classification_date' ) ;
#147 = EDGE_LOOP ( 'NONE', ( #17 ) ) ;
#148 = APPROVAL ( #211, 'UNSPECIFIED' ) ;
#149 = CARTESIAN_POINT ( 'NONE',  ( 0.7750000000000050182, 0.0000000000000000000, 1.549999999999995604 ) ) ;
#150 = LOCAL_TIME ( 7, 36, 35.00000000000000000, #170 ) ;
#151 = APPROVAL_STATUS ( 'not_yet_approved' ) ;
#152 = CARTESIAN_POINT ( 'NONE',  ( 1.703081175871623934E-14, 0.0000000000000000000, 4.877818354417790658 ) ) ;
#153 = ADVANCED_FACE ( 'NONE', ( #48, #126 ), #89, .T. ) ;
#154 = PRODUCT_DEFINITION_SHAPE ( 'NONE', 'NONE',  #1 ) ;
#155 = PERSON_AND_ORGANIZATION ( #209, #181 ) ;
#156 = CLOSED_SHELL ( 'NONE', ( #56, #198, #35 ) ) ;
#157 = AXIS2_PLACEMENT_3D ( 'NONE', #79, #202, #220 ) ;
#158 = ORIENTED_EDGE ( 'NONE', *, *, #193, .F. ) ;
#159 = EDGE_CURVE ( 'NONE', #29, #29, #143, .T. ) ;
#160 = APPROVAL_DATE_TIME ( #125, #148 ) ;
#161 = PERSON_AND_ORGANIZATION_ROLE ( 'design_supplier' ) ;
#162 = PLANE ( 'NONE',  #88 ) ;
#163 = EDGE_CURVE ( 'NONE', #182, #182, #24, .T. ) ;
#164 = LOCAL_TIME ( 7, 36, 35.00000000000000000, #213 ) ;
#165 = ORIENTED_EDGE ( 'NONE', *, *, #93, .T. ) ;
#166 = FACE_OUTER_BOUND ( 'NONE', #116, .T. ) ;
#167 = DATE_AND_TIME ( #86, #37 ) ;
#168 = AXIS2_PLACEMENT_3D ( 'NONE', #124, #98, #188 ) ;
#169 = CARTESIAN_POINT ( 'NONE',  ( 1.316288464743861212E-13, 1.499999999999994005, 37.69999999999999574 ) ) ;
#170 = COORDINATED_UNIVERSAL_TIME_OFFSET ( 1, 0, .AHEAD. ) ;
#171 = CC_DESIGN_PERSON_AND_ORGANIZATION_ASSIGNMENT ( #195, #92, ( #120 ) ) ;
#172 = FACE_OUTER_BOUND ( 'NONE', #133, .T. ) ;
#173 = CARTESIAN_POINT ( 'NONE',  ( 0.0000000000000000000, 0.0000000000000000000, 0.0000000000000000000 ) ) ;
#174 = CLOSED_SHELL ( 'NONE', ( #32, #153, #208, #112, #69 ) ) ;
#175 = CC_DESIGN_APPROVAL ( #9, ( #1 ) ) ;
#176 = FACE_OUTER_BOUND ( 'NONE', #65, .T. ) ;
#177 = DIRECTION ( 'NONE',  ( 3.491481338843133355E-15, -1.224646799147353207E-16, 1.000000000000000000 ) ) ;
#178 = DIRECTION ( 'NONE',  ( 3.491481338843133355E-15, -0.0000000000000000000, 1.000000000000000000 ) ) ;
#179 = DIRECTION ( 'NONE',  ( 3.491481338843133355E-15, -0.0000000000000000000, 1.000000000000000000 ) ) ;
#180 = ORIENTED_EDGE ( 'NONE', *, *, #121, .F. ) ;
#181 = ORGANIZATION ( 'UNSPECIFIED', 'UNSPECIFIED', '' ) ;
#182 = VERTEX_POINT ( 'NONE', #169 ) ;
#183 = DIRECTION ( 'NONE',  ( 4.275831445896958607E-31, 1.000000000000000000, 1.224646799147353207E-16 ) ) ;
#184 = PLANE ( 'NONE',  #3 ) ;
#185 = APPLICATION_PROTOCOL_DEFINITION ( 'international standard', 'config_control_design', 1994, #72 ) ;
#186 = AXIS2_PLACEMENT_3D ( 'NONE', #152, #219, #191 ) ;
#187 = ORIENTED_EDGE ( 'NONE', *, *, #67, .T. ) ;
#188 = DIRECTION ( 'NONE',  ( 1.000000000000000000, 0.0000000000000000000, 0.0000000000000000000 ) ) ;
#189 = APPROVAL_STATUS ( 'not_yet_approved' ) ;
#190 = DIRECTION ( 'NONE',  ( -3.491481338843133355E-15, 1.224646799147353207E-16, -1.000000000000000000 ) ) ;
#191 = DIRECTION ( 'NONE',  ( -1.000000000000000000, 0.0000000000000000000, 3.469446951953622472E-15 ) ) ;
#192 = DIRECTION ( 'NONE',  ( 1.000000000000000000, 0.0000000000000000000, -3.491481338843133355E-15 ) ) ;
#193 = EDGE_CURVE ( 'NONE', #84, #84, #110, .T. ) ;
#194 = COORDINATED_UNIVERSAL_TIME_OFFSET ( 1, 0, .AHEAD. ) ;
#195 = PERSON_AND_ORGANIZATION ( #209, #181 ) ;
#196 = CALENDAR_DATE ( 2021, 10, 11 ) ;
#197 = ORIENTED_EDGE ( 'NONE', *, *, #159, .T. ) ;
#198 = ADVANCED_FACE ( 'NONE', ( #11, #172 ), #81, .T. ) ;
#199 = AXIS2_PLACEMENT_3D ( 'NONE', #42, #218, #183 ) ;
#200 = PLANE ( 'NONE',  #199 ) ;
#201 = CC_DESIGN_DATE_AND_TIME_ASSIGNMENT ( #57, #146, ( #7 ) ) ;
#202 = DIRECTION ( 'NONE',  ( -3.491481338843133355E-15, 1.224646799147353207E-16, -1.000000000000000000 ) ) ;
#203 = EDGE_LOOP ( 'NONE', ( #63 ) ) ;
#204 = PERSON_AND_ORGANIZATION ( #209, #181 ) ;
#205 = DIRECTION ( 'NONE',  ( 0.0000000000000000000, 1.000000000000000000, 0.0000000000000000000 ) ) ;
#206 = DIRECTION ( 'NONE',  ( -3.491481338843133355E-15, 1.224646799147353207E-16, -1.000000000000000000 ) ) ;
#207 = CARTESIAN_POINT ( 'NONE',  ( 0.7750000000000050182, 0.0000000000000000000, 1.549999999999995604 ) ) ;
#208 = ADVANCED_FACE ( 'NONE', ( #166 ), #200, .F. ) ;
#209 = PERSON ( 'UNSPECIFIED', 'UNSPECIFIED', 'UNSPECIFIED', ('UNSPECIFIED'), ('UNSPECIFIED'), ('UNSPECIFIED') ) ;
#210 = APPROVAL ( #151, 'UNSPECIFIED' ) ;
#211 = APPROVAL_STATUS ( 'not_yet_approved' ) ;
#212 = DIRECTION ( 'NONE',  ( 3.491481338843133355E-15, -1.224646799147353207E-16, 1.000000000000000000 ) ) ;
#213 = COORDINATED_UNIVERSAL_TIME_OFFSET ( 1, 0, .AHEAD. ) ;
#214 = AXIS2_PLACEMENT_3D ( 'NONE', #136, #206, #46 ) ;
#215 = CARTESIAN_POINT ( 'NONE',  ( 1.326762908760390423E-13, 1.199999999999994182, 38.00000000000000000 ) ) ;
#216 = PERSON_AND_ORGANIZATION_ROLE ( 'design_owner' ) ;
#217 = CYLINDRICAL_SURFACE ( 'NONE', #214, 1.499999999999996447 ) ;
#218 = DIRECTION ( 'NONE',  ( -3.491481338843133355E-15, 1.224646799147353207E-16, -1.000000000000000000 ) ) ;
#219 = DIRECTION ( 'NONE',  ( -3.491481338843133355E-15, 0.0000000000000000000, -1.000000000000000000 ) ) ;
#220 = DIRECTION ( 'NONE',  ( 0.0000000000000000000, 1.000000000000000000, 0.0000000000000000000 ) ) ;
#221 = ORIENTED_EDGE ( 'NONE', *, *, #67, .F. ) ;
#222 = TOROIDAL_SURFACE ( 'NONE', #142, 8.775000000000000355, 8.000000000000000000 ) ;
#223 =( NAMED_UNIT ( * ) PLANE_ANGLE_UNIT ( ) SI_UNIT ( $, .RADIAN. ) );
ENDSEC;
END-ISO-10303-21;
