ISO-10303-21;
HEADER;
FILE_DESCRIPTION (( 'STEP AP203' ),
    '1' );
FILE_NAME ('63811.step',
    '2021-11-10T06:36:35',
    ( '' ),
    ( '' ),
    'SwSTEP 2.0',
    'SolidWorks 2019',
    '' );
FILE_SCHEMA (( 'CONFIG_CONTROL_DESIGN' ));
ENDSEC;

DATA;
#1 = MECHANICAL_CONTEXT ( 'NONE', #155, 'mechanical' ) ;
#2 = PERSON_AND_ORGANIZATION_ROLE ( 'design_owner' ) ;
#3 = PRODUCT_DEFINITION ( 'UNKNOWN', '', #208, #135 ) ;
#4 = FACE_OUTER_BOUND ( 'NONE', #31, .T. ) ;
#5 = LOCAL_TIME ( 7, 36, 35.00000000000000000, #156 ) ;
#6 = DIRECTION ( 'NONE',  ( 1.000000000000000000, 0.0000000000000000000, 0.0000000000000000000 ) ) ;
#7 = DIRECTION ( 'NONE',  ( 1.000000000000000000, 0.0000000000000000000, -3.589083053745118507E-15 ) ) ;
#8 = EDGE_CURVE ( 'NONE', #217, #217, #10, .T. ) ;
#9 = ORIENTED_EDGE ( 'NONE', *, *, #127, .T. ) ;
#10 = CIRCLE ( 'NONE', #147, 0.7249999999999999778 ) ;
#11 = CARTESIAN_POINT ( 'NONE',  ( 5.062647941322540999E-15, 0.0000000000000000000, 1.449999999999999289 ) ) ;
#12 = EDGE_LOOP ( 'NONE', ( #115 ) ) ;
#13 = EDGE_CURVE ( 'NONE', #34, #34, #100, .T. ) ;
#14 = CALENDAR_DATE ( 2021, 10, 11 ) ;
#15 = CARTESIAN_POINT ( 'NONE',  ( 0.7250000000000050848, 0.0000000000000000000, 1.449999999999996625 ) ) ;
#16 = DIRECTION ( 'NONE',  ( 3.491481338843133355E-15, -1.224646799147353207E-16, 1.000000000000000000 ) ) ;
#17 = CARTESIAN_POINT ( 'NONE',  ( -6.413803915257457113E-31, 2.249659577954772199E-32, -1.836986451539393076E-16 ) ) ;
#18 = DATE_TIME_ROLE ( 'classification_date' ) ;
#19 = CLOSED_SHELL ( 'NONE', ( #24, #37, #210, #82, #98, #68 ) ) ;
#20 = DIRECTION ( 'NONE',  ( 0.0000000000000000000, 0.0000000000000000000, 1.000000000000000000 ) ) ;
#21 = CONICAL_SURFACE ( 'NONE', #186, 1.499999999999996225, 0.2617993877991429685 ) ;
#22 = DIRECTION ( 'NONE',  ( 0.0000000000000000000, 1.000000000000000000, 0.0000000000000000000 ) ) ;
#23 = AXIS2_PLACEMENT_3D ( 'NONE', #86, #161, #108 ) ;
#24 = ADVANCED_FACE ( 'NONE', ( #169, #42 ), #237, .T. ) ;
#25 = DIRECTION ( 'NONE',  ( -3.491481338843133355E-15, 1.224646799147353207E-16, -1.000000000000000000 ) ) ;
#26 = EDGE_CURVE ( 'NONE', #243, #243, #88, .T. ) ;
#27 = ORIENTED_EDGE ( 'NONE', *, *, #8, .F. ) ;
#28 = EDGE_LOOP ( 'NONE', ( #228 ) ) ;
#29 = DIRECTION ( 'NONE',  ( -4.275831445896958607E-31, -1.000000000000000000, -1.224646799147353207E-16 ) ) ;
#30 = CC_DESIGN_APPROVAL ( #197, ( #208 ) ) ;
#31 = EDGE_LOOP ( 'NONE', ( #202 ) ) ;
#32 = COORDINATED_UNIVERSAL_TIME_OFFSET ( 1, 0, .AHEAD. ) ;
#33 = DIRECTION ( 'NONE',  ( 1.000000000000000000, 0.0000000000000000000, -3.469446951953622866E-15 ) ) ;
#34 = VERTEX_POINT ( 'NONE', #15 ) ;
#35 = CONICAL_SURFACE ( 'NONE', #57, 1.199999999999998845, 0.7853981633974450594 ) ;
#36 = APPROVAL_PERSON_ORGANIZATION ( #117, #149, #95 ) ;
#37 = ADVANCED_FACE ( 'NONE', ( #4, #40 ), #35, .T. ) ;
#38 = PLANE ( 'NONE',  #65 ) ;
#39 = CC_DESIGN_PERSON_AND_ORGANIZATION_ASSIGNMENT ( #165, #2, ( #111 ) ) ;
#40 = FACE_BOUND ( 'NONE', #214, .T. ) ;
#41 = ORIENTED_EDGE ( 'NONE', *, *, #26, .F. ) ;
#42 = FACE_OUTER_BOUND ( 'NONE', #151, .T. ) ;
#43 = EDGE_CURVE ( 'NONE', #129, #129, #51, .T. ) ;
#44 = APPROVAL_ROLE ( '' ) ;
#45 = AXIS2_PLACEMENT_3D ( 'NONE', #136, #92, #7 ) ;
#46 = CARTESIAN_POINT ( 'NONE',  ( 5.062647941322542576E-15, -2.096124200138647740E-16, 1.449999999999999956 ) ) ;
#47 = PERSON_AND_ORGANIZATION_ROLE ( 'creator' ) ;
#48 = SECURITY_CLASSIFICATION_LEVEL ( 'unclassified' ) ;
#49 = ORIENTED_EDGE ( 'NONE', *, *, #127, .F. ) ;
#50 = CC_DESIGN_PERSON_AND_ORGANIZATION_ASSIGNMENT ( #195, #70, ( #3 ) ) ;
#51 = CIRCLE ( 'NONE', #219, 0.7249999999999995337 ) ;
#52 = FACE_OUTER_BOUND ( 'NONE', #12, .T. ) ;
#53 = ADVANCED_FACE ( 'NONE', ( #52 ), #206, .T. ) ;
#54 = CARTESIAN_POINT ( 'NONE',  ( 1.608052137483661210E-14, 0.0000000000000000000, 4.605644371040725105 ) ) ;
#55 = VERTEX_POINT ( 'NONE', #102 ) ;
#56 = DIRECTION ( 'NONE',  ( -3.491481338843133355E-15, 1.224646799147353207E-16, -1.000000000000000000 ) ) ;
#57 = AXIS2_PLACEMENT_3D ( 'NONE', #91, #75, #168 ) ;
#58 = LOCAL_TIME ( 7, 36, 35.00000000000000000, #173 ) ;
#59 = DIRECTION ( 'NONE',  ( 1.000000000000000000, 0.0000000000000000000, -3.469446951953622866E-15 ) ) ;
#60 = FACE_OUTER_BOUND ( 'NONE', #204, .T. ) ;
#61 = ORIENTED_EDGE ( 'NONE', *, *, #171, .T. ) ;
#62 = CARTESIAN_POINT ( 'NONE',  ( 6.869971673547798168E-15, 0.0000000000000000000, 1.967638090205028112 ) ) ;
#63 = APPROVAL_DATE_TIME ( #184, #101 ) ;
#64 = PERSON ( 'UNSPECIFIED', 'UNSPECIFIED', 'UNSPECIFIED', ('UNSPECIFIED'), ('UNSPECIFIED'), ('UNSPECIFIED') ) ;
#65 = AXIS2_PLACEMENT_3D ( 'NONE', #113, #145, #106 ) ;
#66 = PLANE ( 'NONE',  #181 ) ;
#67 = DATE_AND_TIME ( #14, #172 ) ;
#68 = ADVANCED_FACE ( 'NONE', ( #231 ), #66, .F. ) ;
#69 = EDGE_LOOP ( 'NONE', ( #176 ) ) ;
#70 = PERSON_AND_ORGANIZATION_ROLE ( 'creator' ) ;
#71 = LOCAL_TIME ( 7, 36, 35.00000000000000000, #124 ) ;
#72 = PERSON_AND_ORGANIZATION ( #64, #232 ) ;
#73 =( NAMED_UNIT ( * ) PLANE_ANGLE_UNIT ( ) SI_UNIT ( $, .RADIAN. ) );
#74 = DIRECTION ( 'NONE',  ( 3.491481338843133355E-15, -0.0000000000000000000, 1.000000000000000000 ) ) ;
#75 = DIRECTION ( 'NONE',  ( -3.491481338843133355E-15, 1.224646799147353207E-16, -1.000000000000000000 ) ) ;
#76 = AXIS2_PLACEMENT_3D ( 'NONE', #229, #56, #146 ) ;
#77 = CALENDAR_DATE ( 2021, 10, 11 ) ;
#78 = AXIS2_PLACEMENT_3D ( 'NONE', #183, #148, #59 ) ;
#79 = DIRECTION ( 'NONE',  ( 1.000000000000000000, 0.0000000000000000000, -3.491481338843132961E-15 ) ) ;
#80 = ORIENTED_EDGE ( 'NONE', *, *, #26, .T. ) ;
#81 = AXIS2_PLACEMENT_3D ( 'NONE', #134, #25, #22 ) ;
#82 = ADVANCED_FACE ( 'NONE', ( #131, #220 ), #121, .F. ) ;
#83 = DIRECTION ( 'NONE',  ( 1.000000000000000000, 0.0000000000000000000, -3.589083053745118507E-15 ) ) ;
#84 = CC_DESIGN_APPROVAL ( #149, ( #3 ) ) ;
#85 = CARTESIAN_POINT ( 'NONE',  ( 0.0000000000000000000, 0.0000000000000000000, 0.0000000000000000000 ) ) ;
#86 = CARTESIAN_POINT ( 'NONE',  ( 5.062647941322540999E-15, 0.0000000000000000000, 1.449999999999999512 ) ) ;
#87 = DIRECTION ( 'NONE',  ( 3.491481338843133355E-15, -1.224646799147353207E-16, 1.000000000000000000 ) ) ;
#88 = CIRCLE ( 'NONE', #81, 1.199999999999998845 ) ;
#89 = APPLICATION_PROTOCOL_DEFINITION ( 'international standard', 'config_control_design', 1994, #155 ) ;
#90 = VERTEX_POINT ( 'NONE', #166 ) ;
#91 = CARTESIAN_POINT ( 'NONE',  ( 1.326762908760390423E-13, -4.653657836759941941E-15, 38.00000000000000000 ) ) ;
#92 = DIRECTION ( 'NONE',  ( 3.491481338843133355E-15, -0.0000000000000000000, 1.000000000000000000 ) ) ;
#93 = FACE_OUTER_BOUND ( 'NONE', #28, .T. ) ;
#94 = LOCAL_TIME ( 7, 36, 35.00000000000000000, #32 ) ;
#95 = APPROVAL_ROLE ( '' ) ;
#96 = EDGE_LOOP ( 'NONE', ( #174 ) ) ;
#97 = EDGE_LOOP ( 'NONE', ( #194 ) ) ;
#98 = ADVANCED_FACE ( 'NONE', ( #242, #218 ), #21, .T. ) ;
#99 = APPROVAL_STATUS ( 'not_yet_approved' ) ;
#100 = CIRCLE ( 'NONE', #45, 0.7249999999999999778 ) ;
#101 = APPROVAL ( #182, 'UNSPECIFIED' ) ;
#102 = CARTESIAN_POINT ( 'NONE',  ( 1.316288464743861212E-13, 1.499999999999994005, 37.69999999999999574 ) ) ;
#103 = DIRECTION ( 'NONE',  ( -4.275831445896958607E-31, -1.000000000000000000, -1.224646799147353207E-16 ) ) ;
#104 = CARTESIAN_POINT ( 'NONE',  ( 0.7250000000000050848, 0.0000000000000000000, 1.449999999999996625 ) ) ;
#105 = AXIS2_PLACEMENT_3D ( 'NONE', #62, #200, #223 ) ;
#106 = DIRECTION ( 'NONE',  ( 4.275831445896958607E-31, 1.000000000000000000, 1.224646799147353207E-16 ) ) ;
#107 = CALENDAR_DATE ( 2021, 10, 11 ) ;
#108 = DIRECTION ( 'NONE',  ( 1.000000000000000000, 0.0000000000000000000, -3.491481338843133750E-15 ) ) ;
#109 = CARTESIAN_POINT ( 'NONE',  ( 0.7249999999999995337, 0.0000000000000000000, -2.531323970661270105E-15 ) ) ;
#110 = APPLICATION_PROTOCOL_DEFINITION ( 'international standard', 'config_control_design', 1994, #175 ) ;
#111 = PRODUCT ( '63811', '63811', '', ( #1 ) ) ;
#112 = AXIS2_PLACEMENT_3D ( 'NONE', #46, #212, #29 ) ;
#113 = CARTESIAN_POINT ( 'NONE',  ( 1.326762908760390423E-13, 8.998558695971069014E-33, 38.00000000000000000 ) ) ;
#114 = CALENDAR_DATE ( 2021, 10, 11 ) ;
#115 = ORIENTED_EDGE ( 'NONE', *, *, #8, .T. ) ;
#116 = ADVANCED_BREP_SHAPE_REPRESENTATION ( '63811', ( #205, #209, #152 ), #240 ) ;
#117 = PERSON_AND_ORGANIZATION ( #64, #232 ) ;
#118 = PERSON_AND_ORGANIZATION ( #64, #232 ) ;
#119 = EDGE_LOOP ( 'NONE', ( #61 ) ) ;
#120 = CIRCLE ( 'NONE', #78, 1.499999999999996225 ) ;
#121 = TOROIDAL_SURFACE ( 'NONE', #23, 2.725000000000000089, 2.000000000000000000 ) ;
#122 = AXIS2_PLACEMENT_3D ( 'NONE', #17, #87, #160 ) ;
#123 = CARTESIAN_POINT ( 'NONE',  ( 0.7931483474218667951, 0.0000000000000000000, 1.967638090205025669 ) ) ;
#124 = COORDINATED_UNIVERSAL_TIME_OFFSET ( 1, 0, .AHEAD. ) ;
#125 = PRODUCT_DEFINITION_SHAPE ( 'NONE', 'NONE',  #3 ) ;
#126 = DIRECTION ( 'NONE',  ( 3.491481338843133355E-15, -0.0000000000000000000, 1.000000000000000000 ) ) ;
#127 = EDGE_CURVE ( 'NONE', #90, #90, #120, .T. ) ;
#128 =( NAMED_UNIT ( * ) SI_UNIT ( $, .STERADIAN. ) SOLID_ANGLE_UNIT ( ) );
#129 = VERTEX_POINT ( 'NONE', #109 ) ;
#130 = DIRECTION ( 'NONE',  ( -3.491481338843133355E-15, 1.224646799147353207E-16, -1.000000000000000000 ) ) ;
#131 = FACE_OUTER_BOUND ( 'NONE', #178, .T. ) ;
#132 = FACE_OUTER_BOUND ( 'NONE', #191, .T. ) ;
#133 = CYLINDRICAL_SURFACE ( 'NONE', #238, 0.7249999999999997558 ) ;
#134 = CARTESIAN_POINT ( 'NONE',  ( 1.326762908760390423E-13, -4.653657836759941941E-15, 38.00000000000000000 ) ) ;
#135 = DESIGN_CONTEXT ( 'detailed design', #175, 'design' ) ;
#136 = CARTESIAN_POINT ( 'NONE',  ( 5.062647941322540999E-15, 0.0000000000000000000, 1.449999999999999289 ) ) ;
#137 = APPROVAL_STATUS ( 'not_yet_approved' ) ;
#138 = PERSON_AND_ORGANIZATION ( #64, #232 ) ;
#139 = EDGE_LOOP ( 'NONE', ( #157 ) ) ;
#140 = CARTESIAN_POINT ( 'NONE',  ( 0.0000000000000000000, 0.0000000000000000000, 0.0000000000000000000 ) ) ;
#141 = PERSON_AND_ORGANIZATION ( #64, #232 ) ;
#142 = DATE_AND_TIME ( #189, #71 ) ;
#143 = APPROVAL_ROLE ( '' ) ;
#144 = PLANE ( 'NONE',  #122 ) ;
#145 = DIRECTION ( 'NONE',  ( -3.491481338843133355E-15, 1.224646799147353207E-16, -1.000000000000000000 ) ) ;
#146 = DIRECTION ( 'NONE',  ( 0.0000000000000000000, 1.000000000000000000, 0.0000000000000000000 ) ) ;
#147 = AXIS2_PLACEMENT_3D ( 'NONE', #11, #179, #83 ) ;
#148 = DIRECTION ( 'NONE',  ( 3.491481338843133355E-15, -0.0000000000000000000, 1.000000000000000000 ) ) ;
#149 = APPROVAL ( #137, 'UNSPECIFIED' ) ;
#150 = CC_DESIGN_APPROVAL ( #101, ( #215 ) ) ;
#151 = EDGE_LOOP ( 'NONE', ( #9 ) ) ;
#152 = AXIS2_PLACEMENT_3D ( 'NONE', #187, #20, #6 ) ;
#153 = CC_DESIGN_PERSON_AND_ORGANIZATION_ASSIGNMENT ( #118, #193, ( #215 ) ) ;
#154 = DATE_AND_TIME ( #77, #58 ) ;
#155 = APPLICATION_CONTEXT ( 'configuration controlled 3d designs of mechanical parts and assemblies' ) ;
#156 = COORDINATED_UNIVERSAL_TIME_OFFSET ( 1, 0, .AHEAD. ) ;
#157 = ORIENTED_EDGE ( 'NONE', *, *, #188, .F. ) ;
#158 = DIRECTION ( 'NONE',  ( 3.491481338843133355E-15, -0.0000000000000000000, 1.000000000000000000 ) ) ;
#159 = APPROVAL_DATE_TIME ( #234, #197 ) ;
#160 = DIRECTION ( 'NONE',  ( -4.275831445896958607E-31, -1.000000000000000000, -1.224646799147353207E-16 ) ) ;
#161 = DIRECTION ( 'NONE',  ( 3.491481338843133355E-15, -0.0000000000000000000, 1.000000000000000000 ) ) ;
#162 = FACE_OUTER_BOUND ( 'NONE', #69, .T. ) ;
#163 = SHAPE_DEFINITION_REPRESENTATION ( #125, #116 ) ;
#164 = CC_DESIGN_SECURITY_CLASSIFICATION ( #215, ( #208 ) ) ;
#165 = PERSON_AND_ORGANIZATION ( #64, #232 ) ;
#166 = CARTESIAN_POINT ( 'NONE',  ( 1.500000000000012212, 0.0000000000000000000, 4.605644371040719776 ) ) ;
#167 = ADVANCED_FACE ( 'NONE', ( #93, #60 ), #133, .T. ) ;
#168 = DIRECTION ( 'NONE',  ( 0.0000000000000000000, 1.000000000000000000, 0.0000000000000000000 ) ) ;
#169 = FACE_OUTER_BOUND ( 'NONE', #119, .T. ) ;
#170 = APPROVAL_PERSON_ORGANIZATION ( #141, #101, #143 ) ;
#171 = EDGE_CURVE ( 'NONE', #55, #55, #198, .T. ) ;
#172 = LOCAL_TIME ( 7, 36, 35.00000000000000000, #211 ) ;
#173 = COORDINATED_UNIVERSAL_TIME_OFFSET ( 1, 0, .AHEAD. ) ;
#174 = ORIENTED_EDGE ( 'NONE', *, *, #188, .T. ) ;
#175 = APPLICATION_CONTEXT ( 'configuration controlled 3d designs of mechanical parts and assemblies' ) ;
#176 = ORIENTED_EDGE ( 'NONE', *, *, #43, .F. ) ;
#177 = APPROVAL_PERSON_ORGANIZATION ( #72, #197, #44 ) ;
#178 = EDGE_LOOP ( 'NONE', ( #190 ) ) ;
#179 = DIRECTION ( 'NONE',  ( 3.491481338843133355E-15, -0.0000000000000000000, 1.000000000000000000 ) ) ;
#180 = PRODUCT_RELATED_PRODUCT_CATEGORY ( 'detail', '', ( #111 ) ) ;
#181 = AXIS2_PLACEMENT_3D ( 'NONE', #233, #16, #103 ) ;
#182 = APPROVAL_STATUS ( 'not_yet_approved' ) ;
#183 = CARTESIAN_POINT ( 'NONE',  ( 1.608052137483661210E-14, 0.0000000000000000000, 4.605644371040725105 ) ) ;
#184 = DATE_AND_TIME ( #107, #94 ) ;
#185 = DIRECTION ( 'NONE',  ( 4.275831445896958607E-31, 1.000000000000000000, 1.224646799147352961E-16 ) ) ;
#186 = AXIS2_PLACEMENT_3D ( 'NONE', #54, #126, #33 ) ;
#187 = CARTESIAN_POINT ( 'NONE',  ( 0.0000000000000000000, 0.0000000000000000000, 0.0000000000000000000 ) ) ;
#188 = EDGE_CURVE ( 'NONE', #216, #216, #207, .T. ) ;
#189 = CALENDAR_DATE ( 2021, 10, 11 ) ;
#190 = ORIENTED_EDGE ( 'NONE', *, *, #13, .T. ) ;
#191 = EDGE_LOOP ( 'NONE', ( #41 ) ) ;
#192 = PERSON_AND_ORGANIZATION ( #64, #232 ) ;
#193 = PERSON_AND_ORGANIZATION_ROLE ( 'classification_officer' ) ;
#194 = ORIENTED_EDGE ( 'NONE', *, *, #13, .F. ) ;
#195 = PERSON_AND_ORGANIZATION ( #64, #232 ) ;
#196 = CC_DESIGN_PERSON_AND_ORGANIZATION_ASSIGNMENT ( #138, #213, ( #208 ) ) ;
#197 = APPROVAL ( #99, 'UNSPECIFIED' ) ;
#198 = CIRCLE ( 'NONE', #76, 1.499999999999998446 ) ;
#199 = CARTESIAN_POINT ( 'NONE',  ( -1.786038389295302186E-30, 0.0000000000000000000, -5.115417256925931626E-16 ) ) ;
#200 = DIRECTION ( 'NONE',  ( 3.491481338843133355E-15, -0.0000000000000000000, 1.000000000000000000 ) ) ;
#201 = APPROVAL_DATE_TIME ( #154, #149 ) ;
#202 = ORIENTED_EDGE ( 'NONE', *, *, #171, .F. ) ;
#203 = CC_DESIGN_DATE_AND_TIME_ASSIGNMENT ( #142, #18, ( #215 ) ) ;
#204 = EDGE_LOOP ( 'NONE', ( #27 ) ) ;
#205 = MANIFOLD_SOLID_BREP ( 'Corps-Déplacer/Copier1[1]', #19 ) ;
#206 = PLANE ( 'NONE',  #112 ) ;
#207 = CIRCLE ( 'NONE', #105, 0.7931483474218600227 ) ;
#208 = PRODUCT_DEFINITION_FORMATION_WITH_SPECIFIED_SOURCE ( 'ANY', '', #111, .NOT_KNOWN. ) ;
#209 = MANIFOLD_SOLID_BREP ( 'Corps-Déplacer/Copier1[2]', #230 ) ;
#210 = ADVANCED_FACE ( 'NONE', ( #132 ), #38, .F. ) ;
#211 = COORDINATED_UNIVERSAL_TIME_OFFSET ( 1, 0, .AHEAD. ) ;
#212 = DIRECTION ( 'NONE',  ( 3.491481338843133355E-15, -1.224646799147353207E-16, 1.000000000000000000 ) ) ;
#213 = PERSON_AND_ORGANIZATION_ROLE ( 'design_supplier' ) ;
#214 = EDGE_LOOP ( 'NONE', ( #80 ) ) ;
#215 = SECURITY_CLASSIFICATION ( '', '', #48 ) ;
#216 = VERTEX_POINT ( 'NONE', #123 ) ;
#217 = VERTEX_POINT ( 'NONE', #104 ) ;
#218 = FACE_OUTER_BOUND ( 'NONE', #235, .T. ) ;
#219 = AXIS2_PLACEMENT_3D ( 'NONE', #140, #158, #236 ) ;
#220 = FACE_OUTER_BOUND ( 'NONE', #139, .T. ) ;
#221 = CC_DESIGN_PERSON_AND_ORGANIZATION_ASSIGNMENT ( #192, #47, ( #208 ) ) ;
#222 = CARTESIAN_POINT ( 'NONE',  ( 1.326762908760390423E-13, 1.199999999999994182, 38.00000000000000000 ) ) ;
#223 = DIRECTION ( 'NONE',  ( 1.000000000000000000, 0.0000000000000000000, -3.280704325266925930E-15 ) ) ;
#224 = ADVANCED_FACE ( 'NONE', ( #162 ), #144, .F. ) ;
#225 = UNCERTAINTY_MEASURE_WITH_UNIT (LENGTH_MEASURE( 1.000000000000000082E-05 ), #241, 'distance_accuracy_value', 'NONE');
#226 = AXIS2_PLACEMENT_3D ( 'NONE', #85, #130, #185 ) ;
#227 = CC_DESIGN_DATE_AND_TIME_ASSIGNMENT ( #67, #239, ( #3 ) ) ;
#228 = ORIENTED_EDGE ( 'NONE', *, *, #43, .T. ) ;
#229 = CARTESIAN_POINT ( 'NONE',  ( 1.316288464743861212E-13, -4.616918432785521081E-15, 37.69999999999999574 ) ) ;
#230 = CLOSED_SHELL ( 'NONE', ( #53, #167, #224 ) ) ;
#231 = FACE_OUTER_BOUND ( 'NONE', #97, .T. ) ;
#232 = ORGANIZATION ( 'UNSPECIFIED', 'UNSPECIFIED', '' ) ;
#233 = CARTESIAN_POINT ( 'NONE',  ( 5.062647941322542576E-15, -2.096124200138647740E-16, 1.449999999999999956 ) ) ;
#234 = DATE_AND_TIME ( #114, #5 ) ;
#235 = EDGE_LOOP ( 'NONE', ( #49 ) ) ;
#236 = DIRECTION ( 'NONE',  ( 1.000000000000000000, 0.0000000000000000000, -3.491481338843133355E-15 ) ) ;
#237 = CYLINDRICAL_SURFACE ( 'NONE', #226, 1.499999999999996447 ) ;
#238 = AXIS2_PLACEMENT_3D ( 'NONE', #199, #74, #79 ) ;
#239 = DATE_TIME_ROLE ( 'creation_date' ) ;
#240 =( GEOMETRIC_REPRESENTATION_CONTEXT ( 3 ) GLOBAL_UNCERTAINTY_ASSIGNED_CONTEXT ( ( #225 ) ) GLOBAL_UNIT_ASSIGNED_CONTEXT ( ( #241, #73, #128 ) ) REPRESENTATION_CONTEXT ( 'NONE', 'WORKASPACE' ) );
#241 =( LENGTH_UNIT ( ) NAMED_UNIT ( * ) SI_UNIT ( .MILLI., .METRE. ) );
#242 = FACE_BOUND ( 'NONE', #96, .T. ) ;
#243 = VERTEX_POINT ( 'NONE', #222 ) ;
ENDSEC;
END-ISO-10303-21;
