ISO-10303-21;
HEADER;
FILE_DESCRIPTION (( 'STEP AP203' ),
    '1' );
FILE_NAME ('63810.step',
    '2021-11-10T06:36:34',
    ( '' ),
    ( '' ),
    'SwSTEP 2.0',
    'SolidWorks 2019',
    '' );
FILE_SCHEMA (( 'CONFIG_CONTROL_DESIGN' ));
ENDSEC;

DATA;
#1 =( LENGTH_UNIT ( ) NAMED_UNIT ( * ) SI_UNIT ( .MILLI., .METRE. ) );
#2 = EDGE_CURVE ( 'NONE', #85, #85, #25, .T. ) ;
#3 = PERSON_AND_ORGANIZATION ( #209, #203 ) ;
#4 = VERTEX_POINT ( 'NONE', #92 ) ;
#5 = CC_DESIGN_PERSON_AND_ORGANIZATION_ASSIGNMENT ( #188, #149, ( #193 ) ) ;
#6 = ORIENTED_EDGE ( 'NONE', *, *, #107, .F. ) ;
#7 = ORIENTED_EDGE ( 'NONE', *, *, #210, .F. ) ;
#8 = EDGE_LOOP ( 'NONE', ( #190 ) ) ;
#9 = AXIS2_PLACEMENT_3D ( 'NONE', #84, #126, #100 ) ;
#10 = DIRECTION ( 'NONE',  ( 1.000000000000000000, 0.0000000000000000000, -3.407492542097301509E-15 ) ) ;
#11 = DIRECTION ( 'NONE',  ( 1.000000000000000000, 0.0000000000000000000, -3.407492542097301509E-15 ) ) ;
#12 = CARTESIAN_POINT ( 'NONE',  ( 4.888073874380385909E-15, -2.023844055306280203E-16, 1.399999999999999689 ) ) ;
#13 = AXIS2_PLACEMENT_3D ( 'NONE', #232, #236, #57 ) ;
#14 = CLOSED_SHELL ( 'NONE', ( #125, #170, #206 ) ) ;
#15 = PRODUCT_RELATED_PRODUCT_CATEGORY ( 'detail', '', ( #192 ) ) ;
#16 = DATE_TIME_ROLE ( 'classification_date' ) ;
#17 =( GEOMETRIC_REPRESENTATION_CONTEXT ( 3 ) GLOBAL_UNCERTAINTY_ASSIGNED_CONTEXT ( ( #54 ) ) GLOBAL_UNIT_ASSIGNED_CONTEXT ( ( #1, #64, #105 ) ) REPRESENTATION_CONTEXT ( 'NONE', 'WORKASPACE' ) );
#18 = ADVANCED_FACE ( 'NONE', ( #76, #146 ), #238, .T. ) ;
#19 = EDGE_LOOP ( 'NONE', ( #7 ) ) ;
#20 = DIRECTION ( 'NONE',  ( -3.491481338843133355E-15, 1.224646799147353207E-16, -1.000000000000000000 ) ) ;
#21 = DATE_AND_TIME ( #159, #186 ) ;
#22 = CALENDAR_DATE ( 2021, 10, 11 ) ;
#23 = DIRECTION ( 'NONE',  ( 4.275831445896958607E-31, 1.000000000000000000, 1.224646799147352961E-16 ) ) ;
#24 = APPROVAL_ROLE ( '' ) ;
#25 = CIRCLE ( 'NONE', #223, 1.499999999999996225 ) ;
#26 = CC_DESIGN_PERSON_AND_ORGANIZATION_ASSIGNMENT ( #191, #75, ( #213 ) ) ;
#27 = DIRECTION ( 'NONE',  ( -3.491481338843133355E-15, 1.224646799147353207E-16, -1.000000000000000000 ) ) ;
#28 = APPROVAL_ROLE ( '' ) ;
#29 = APPROVAL ( #70, 'UNSPECIFIED' ) ;
#30 = DESIGN_CONTEXT ( 'detailed design', #161, 'design' ) ;
#31 = PERSON_AND_ORGANIZATION_ROLE ( 'creator' ) ;
#32 = EDGE_LOOP ( 'NONE', ( #235 ) ) ;
#33 = PRODUCT_DEFINITION ( 'UNKNOWN', '', #193, #30 ) ;
#34 = PERSON_AND_ORGANIZATION ( #209, #203 ) ;
#35 = MANIFOLD_SOLID_BREP ( 'Corps-Déplacer/Copier1[2]', #14 ) ;
#36 = APPROVAL_PERSON_ORGANIZATION ( #103, #135, #28 ) ;
#37 = DIRECTION ( 'NONE',  ( 1.000000000000000000, 0.0000000000000000000, 0.0000000000000000000 ) ) ;
#38 = ORIENTED_EDGE ( 'NONE', *, *, #158, .F. ) ;
#39 = ORIENTED_EDGE ( 'NONE', *, *, #210, .T. ) ;
#40 = ADVANCED_FACE ( 'NONE', ( #231 ), #55, .F. ) ;
#41 = AXIS2_PLACEMENT_3D ( 'NONE', #215, #49, #11 ) ;
#42 = SHAPE_DEFINITION_REPRESENTATION ( #171, #88 ) ;
#43 = DIRECTION ( 'NONE',  ( 0.0000000000000000000, 1.000000000000000000, 0.0000000000000000000 ) ) ;
#44 = COORDINATED_UNIVERSAL_TIME_OFFSET ( 1, 0, .AHEAD. ) ;
#45 = ADVANCED_FACE ( 'NONE', ( #153, #211 ), #118, .T. ) ;
#46 = APPLICATION_CONTEXT ( 'configuration controlled 3d designs of mechanical parts and assemblies' ) ;
#47 = FACE_OUTER_BOUND ( 'NONE', #112, .T. ) ;
#48 = DIRECTION ( 'NONE',  ( 3.491481338843133355E-15, -1.224646799147353207E-16, 1.000000000000000000 ) ) ;
#49 = DIRECTION ( 'NONE',  ( 3.491481338843133355E-15, -0.0000000000000000000, 1.000000000000000000 ) ) ;
#50 = DIRECTION ( 'NONE',  ( 3.491481338843133355E-15, -0.0000000000000000000, 1.000000000000000000 ) ) ;
#51 = AXIS2_PLACEMENT_3D ( 'NONE', #234, #139, #43 ) ;
#52 = DIRECTION ( 'NONE',  ( 3.491481338843133355E-15, -1.224646799147353207E-16, 1.000000000000000000 ) ) ;
#53 = PLANE ( 'NONE',  #101 ) ;
#54 = UNCERTAINTY_MEASURE_WITH_UNIT (LENGTH_MEASURE( 1.000000000000000082E-05 ), #1, 'distance_accuracy_value', 'NONE');
#55 = PLANE ( 'NONE',  #229 ) ;
#56 = APPROVAL_STATUS ( 'not_yet_approved' ) ;
#57 = DIRECTION ( 'NONE',  ( 1.000000000000000000, 0.0000000000000000000, -3.491481338843133355E-15 ) ) ;
#58 = EDGE_LOOP ( 'NONE', ( #138 ) ) ;
#59 = CARTESIAN_POINT ( 'NONE',  ( 1.316288464743861212E-13, 1.499999999999994005, 37.69999999999999574 ) ) ;
#60 = AXIS2_PLACEMENT_3D ( 'NONE', #162, #220, #10 ) ;
#61 = APPLICATION_PROTOCOL_DEFINITION ( 'international standard', 'config_control_design', 1994, #46 ) ;
#62 = EDGE_CURVE ( 'NONE', #145, #145, #117, .T. ) ;
#63 = FACE_OUTER_BOUND ( 'NONE', #176, .T. ) ;
#64 =( NAMED_UNIT ( * ) PLANE_ANGLE_UNIT ( ) SI_UNIT ( $, .RADIAN. ) );
#65 = LOCAL_TIME ( 7, 36, 34.00000000000000000, #44 ) ;
#66 = DIRECTION ( 'NONE',  ( 1.000000000000000000, 0.0000000000000000000, -3.469446951953622866E-15 ) ) ;
#67 = EDGE_CURVE ( 'NONE', #4, #4, #69, .T. ) ;
#68 = CALENDAR_DATE ( 2021, 10, 11 ) ;
#69 = CIRCLE ( 'NONE', #41, 0.6999999999999996225 ) ;
#70 = APPROVAL_STATUS ( 'not_yet_approved' ) ;
#71 = VERTEX_POINT ( 'NONE', #174 ) ;
#72 = APPROVAL_DATE_TIME ( #109, #135 ) ;
#73 = CIRCLE ( 'NONE', #173, 1.199999999999998845 ) ;
#74 = LOCAL_TIME ( 7, 36, 34.00000000000000000, #208 ) ;
#75 = PERSON_AND_ORGANIZATION_ROLE ( 'classification_officer' ) ;
#76 = FACE_BOUND ( 'NONE', #116, .T. ) ;
#77 = EDGE_LOOP ( 'NONE', ( #133 ) ) ;
#78 = CC_DESIGN_PERSON_AND_ORGANIZATION_ASSIGNMENT ( #172, #31, ( #193 ) ) ;
#79 = EDGE_LOOP ( 'NONE', ( #91 ) ) ;
#80 = CC_DESIGN_APPROVAL ( #29, ( #213 ) ) ;
#81 = CARTESIAN_POINT ( 'NONE',  ( 6.695397606605640712E-15, 0.0000000000000000000, 1.917638090205028067 ) ) ;
#82 = DIRECTION ( 'NONE',  ( -3.491481338843133355E-15, 1.224646799147353207E-16, -1.000000000000000000 ) ) ;
#83 = AXIS2_PLACEMENT_3D ( 'NONE', #111, #225, #130 ) ;
#84 = CARTESIAN_POINT ( 'NONE',  ( -1.786038389295302186E-30, 0.0000000000000000000, -5.115417256925931626E-16 ) ) ;
#85 = VERTEX_POINT ( 'NONE', #169 ) ;
#86 = ORIENTED_EDGE ( 'NONE', *, *, #2, .T. ) ;
#87 = DIRECTION ( 'NONE',  ( -4.275831445896958607E-31, -1.000000000000000000, -1.224646799147353207E-16 ) ) ;
#88 = ADVANCED_BREP_SHAPE_REPRESENTATION ( '63810', ( #198, #35, #197 ), #17 ) ;
#89 = APPROVAL_PERSON_ORGANIZATION ( #122, #230, #24 ) ;
#90 = VERTEX_POINT ( 'NONE', #114 ) ;
#91 = ORIENTED_EDGE ( 'NONE', *, *, #67, .T. ) ;
#92 = CARTESIAN_POINT ( 'NONE',  ( 0.7000000000000045075, 0.0000000000000000000, 1.399999999999996803 ) ) ;
#93 = DIRECTION ( 'NONE',  ( 0.0000000000000000000, 0.0000000000000000000, 1.000000000000000000 ) ) ;
#94 = AXIS2_PLACEMENT_3D ( 'NONE', #219, #20, #97 ) ;
#95 = EDGE_LOOP ( 'NONE', ( #217 ) ) ;
#96 = CC_DESIGN_DATE_AND_TIME_ASSIGNMENT ( #140, #16, ( #213 ) ) ;
#97 = DIRECTION ( 'NONE',  ( 0.0000000000000000000, 1.000000000000000000, 0.0000000000000000000 ) ) ;
#98 = PERSON_AND_ORGANIZATION_ROLE ( 'creator' ) ;
#99 = DIRECTION ( 'NONE',  ( 3.491481338843133355E-15, -0.0000000000000000000, 1.000000000000000000 ) ) ;
#100 = DIRECTION ( 'NONE',  ( 1.000000000000000000, 0.0000000000000000000, -3.491481338843133355E-15 ) ) ;
#101 = AXIS2_PLACEMENT_3D ( 'NONE', #147, #52, #87 ) ;
#102 = CARTESIAN_POINT ( 'NONE',  ( 0.0000000000000000000, 0.0000000000000000000, 0.0000000000000000000 ) ) ;
#103 = PERSON_AND_ORGANIZATION ( #209, #203 ) ;
#104 = CARTESIAN_POINT ( 'NONE',  ( 4.888073874380384331E-15, 0.0000000000000000000, 1.399999999999999245 ) ) ;
#105 =( NAMED_UNIT ( * ) SI_UNIT ( $, .STERADIAN. ) SOLID_ANGLE_UNIT ( ) );
#106 = FACE_OUTER_BOUND ( 'NONE', #32, .T. ) ;
#107 = EDGE_CURVE ( 'NONE', #207, #207, #185, .T. ) ;
#108 = CARTESIAN_POINT ( 'NONE',  ( 0.6999999999999996225, 0.0000000000000000000, -2.444036937190192165E-15 ) ) ;
#109 = DATE_AND_TIME ( #131, #74 ) ;
#110 = CLOSED_SHELL ( 'NONE', ( #201, #45, #40, #121, #18, #151 ) ) ;
#111 = CARTESIAN_POINT ( 'NONE',  ( 1.623170695165050940E-14, 0.0000000000000000000, 4.648945641229954795 ) ) ;
#112 = EDGE_LOOP ( 'NONE', ( #6 ) ) ;
#113 = EDGE_CURVE ( 'NONE', #90, #90, #73, .T. ) ;
#114 = CARTESIAN_POINT ( 'NONE',  ( 1.326762908760390423E-13, 1.199999999999994182, 38.00000000000000000 ) ) ;
#115 = ORIENTED_EDGE ( 'NONE', *, *, #158, .T. ) ;
#116 = EDGE_LOOP ( 'NONE', ( #175 ) ) ;
#117 = CIRCLE ( 'NONE', #13, 0.6999999999999996225 ) ;
#118 = CONICAL_SURFACE ( 'NONE', #51, 1.199999999999998845, 0.7853981633974450594 ) ;
#119 = LOCAL_TIME ( 7, 36, 34.00000000000000000, #189 ) ;
#120 = FACE_OUTER_BOUND ( 'NONE', #195, .T. ) ;
#121 = ADVANCED_FACE ( 'NONE', ( #221, #47 ), #202, .F. ) ;
#122 = PERSON_AND_ORGANIZATION ( #209, #203 ) ;
#123 = CALENDAR_DATE ( 2021, 10, 11 ) ;
#124 = FACE_OUTER_BOUND ( 'NONE', #136, .T. ) ;
#125 = ADVANCED_FACE ( 'NONE', ( #124 ), #53, .T. ) ;
#126 = DIRECTION ( 'NONE',  ( 3.491481338843133355E-15, -0.0000000000000000000, 1.000000000000000000 ) ) ;
#127 = CYLINDRICAL_SURFACE ( 'NONE', #9, 0.6999999999999996225 ) ;
#128 = DIRECTION ( 'NONE',  ( -3.491481338843133355E-15, 1.224646799147353207E-16, -1.000000000000000000 ) ) ;
#129 = AXIS2_PLACEMENT_3D ( 'NONE', #12, #240, #222 ) ;
#130 = DIRECTION ( 'NONE',  ( 1.000000000000000000, 0.0000000000000000000, -3.469446951953622866E-15 ) ) ;
#131 = CALENDAR_DATE ( 2021, 10, 11 ) ;
#132 = FACE_OUTER_BOUND ( 'NONE', #95, .T. ) ;
#133 = ORIENTED_EDGE ( 'NONE', *, *, #113, .T. ) ;
#134 = CARTESIAN_POINT ( 'NONE',  ( 0.7681483474218659957, 0.0000000000000000000, 1.917638090205025403 ) ) ;
#135 = APPROVAL ( #56, 'UNSPECIFIED' ) ;
#136 = EDGE_LOOP ( 'NONE', ( #115 ) ) ;
#137 = CARTESIAN_POINT ( 'NONE',  ( 0.0000000000000000000, 0.0000000000000000000, 0.0000000000000000000 ) ) ;
#138 = ORIENTED_EDGE ( 'NONE', *, *, #113, .F. ) ;
#139 = DIRECTION ( 'NONE',  ( -3.491481338843133355E-15, 1.224646799147353207E-16, -1.000000000000000000 ) ) ;
#140 = DATE_AND_TIME ( #123, #65 ) ;
#141 = DATE_TIME_ROLE ( 'creation_date' ) ;
#142 = CARTESIAN_POINT ( 'NONE',  ( -6.413803915257457113E-31, 2.249659577954772199E-32, -1.836986451539393076E-16 ) ) ;
#143 = FACE_OUTER_BOUND ( 'NONE', #167, .T. ) ;
#144 = DIRECTION ( 'NONE',  ( 4.275831445896958607E-31, 1.000000000000000000, 1.224646799147353207E-16 ) ) ;
#145 = VERTEX_POINT ( 'NONE', #108 ) ;
#146 = FACE_OUTER_BOUND ( 'NONE', #8, .T. ) ;
#147 = CARTESIAN_POINT ( 'NONE',  ( 4.888073874380385909E-15, -2.023844055306280203E-16, 1.399999999999999689 ) ) ;
#148 = CIRCLE ( 'NONE', #94, 1.499999999999998446 ) ;
#149 = PERSON_AND_ORGANIZATION_ROLE ( 'design_supplier' ) ;
#150 = AXIS2_PLACEMENT_3D ( 'NONE', #142, #48, #165 ) ;
#151 = ADVANCED_FACE ( 'NONE', ( #132 ), #155, .F. ) ;
#152 = VERTEX_POINT ( 'NONE', #59 ) ;
#153 = FACE_OUTER_BOUND ( 'NONE', #19, .T. ) ;
#154 = PERSON_AND_ORGANIZATION_ROLE ( 'design_owner' ) ;
#155 = PLANE ( 'NONE',  #129 ) ;
#156 = LOCAL_TIME ( 7, 36, 34.00000000000000000, #181 ) ;
#157 = FACE_OUTER_BOUND ( 'NONE', #177, .T. ) ;
#158 = EDGE_CURVE ( 'NONE', #71, #71, #239, .T. ) ;
#159 = CALENDAR_DATE ( 2021, 10, 11 ) ;
#160 = DIRECTION ( 'NONE',  ( 0.0000000000000000000, 1.000000000000000000, 0.0000000000000000000 ) ) ;
#161 = APPLICATION_CONTEXT ( 'configuration controlled 3d designs of mechanical parts and assemblies' ) ;
#162 = CARTESIAN_POINT ( 'NONE',  ( 4.888073874380383542E-15, 0.0000000000000000000, 1.399999999999999023 ) ) ;
#163 = APPROVAL_STATUS ( 'not_yet_approved' ) ;
#164 = APPROVAL_ROLE ( '' ) ;
#165 = DIRECTION ( 'NONE',  ( -4.275831445896958607E-31, -1.000000000000000000, -1.224646799147353207E-16 ) ) ;
#166 = CARTESIAN_POINT ( 'NONE',  ( 1.623170695165050940E-14, 0.0000000000000000000, 4.648945641229954795 ) ) ;
#167 = EDGE_LOOP ( 'NONE', ( #38 ) ) ;
#168 = CC_DESIGN_APPROVAL ( #230, ( #33 ) ) ;
#169 = CARTESIAN_POINT ( 'NONE',  ( 1.500000000000012434, 0.0000000000000000000, 4.648945641229949466 ) ) ;
#170 = ADVANCED_FACE ( 'NONE', ( #157, #143 ), #127, .T. ) ;
#171 = PRODUCT_DEFINITION_SHAPE ( 'NONE', 'NONE',  #33 ) ;
#172 = PERSON_AND_ORGANIZATION ( #209, #203 ) ;
#173 = AXIS2_PLACEMENT_3D ( 'NONE', #224, #128, #160 ) ;
#174 = CARTESIAN_POINT ( 'NONE',  ( 0.7000000000000045075, 0.0000000000000000000, 1.399999999999996803 ) ) ;
#175 = ORIENTED_EDGE ( 'NONE', *, *, #107, .T. ) ;
#176 = EDGE_LOOP ( 'NONE', ( #39 ) ) ;
#177 = EDGE_LOOP ( 'NONE', ( #196 ) ) ;
#178 = CC_DESIGN_PERSON_AND_ORGANIZATION_ASSIGNMENT ( #182, #98, ( #33 ) ) ;
#179 = AXIS2_PLACEMENT_3D ( 'NONE', #104, #183, #204 ) ;
#180 = APPROVAL_PERSON_ORGANIZATION ( #3, #29, #164 ) ;
#181 = COORDINATED_UNIVERSAL_TIME_OFFSET ( 1, 0, .AHEAD. ) ;
#182 = PERSON_AND_ORGANIZATION ( #209, #203 ) ;
#183 = DIRECTION ( 'NONE',  ( 3.491481338843133355E-15, -0.0000000000000000000, 1.000000000000000000 ) ) ;
#184 = DATE_AND_TIME ( #22, #156 ) ;
#185 = CIRCLE ( 'NONE', #212, 0.7681483474218592233 ) ;
#186 = LOCAL_TIME ( 7, 36, 34.00000000000000000, #200 ) ;
#187 = CC_DESIGN_DATE_AND_TIME_ASSIGNMENT ( #184, #141, ( #33 ) ) ;
#188 = PERSON_AND_ORGANIZATION ( #209, #203 ) ;
#189 = COORDINATED_UNIVERSAL_TIME_OFFSET ( 1, 0, .AHEAD. ) ;
#190 = ORIENTED_EDGE ( 'NONE', *, *, #2, .F. ) ;
#191 = PERSON_AND_ORGANIZATION ( #209, #203 ) ;
#192 = PRODUCT ( '63810', '63810', '', ( #216 ) ) ;
#193 = PRODUCT_DEFINITION_FORMATION_WITH_SPECIFIED_SOURCE ( 'ANY', '', #192, .NOT_KNOWN. ) ;
#194 = APPLICATION_PROTOCOL_DEFINITION ( 'international standard', 'config_control_design', 1994, #161 ) ;
#195 = EDGE_LOOP ( 'NONE', ( #86 ) ) ;
#196 = ORIENTED_EDGE ( 'NONE', *, *, #62, .T. ) ;
#197 = AXIS2_PLACEMENT_3D ( 'NONE', #137, #93, #37 ) ;
#198 = MANIFOLD_SOLID_BREP ( 'Corps-Déplacer/Copier1[1]', #110 ) ;
#199 = CYLINDRICAL_SURFACE ( 'NONE', #227, 1.499999999999996447 ) ;
#200 = COORDINATED_UNIVERSAL_TIME_OFFSET ( 1, 0, .AHEAD. ) ;
#201 = ADVANCED_FACE ( 'NONE', ( #63, #120 ), #199, .T. ) ;
#202 = TOROIDAL_SURFACE ( 'NONE', #179, 2.699999999999999289, 2.000000000000000000 ) ;
#203 = ORGANIZATION ( 'UNSPECIFIED', 'UNSPECIFIED', '' ) ;
#204 = DIRECTION ( 'NONE',  ( 1.000000000000000000, 0.0000000000000000000, -3.491481338843133355E-15 ) ) ;
#205 = CARTESIAN_POINT ( 'NONE',  ( 1.326762908760390423E-13, 8.998558695971069014E-33, 38.00000000000000000 ) ) ;
#206 = ADVANCED_FACE ( 'NONE', ( #106 ), #243, .F. ) ;
#207 = VERTEX_POINT ( 'NONE', #134 ) ;
#208 = COORDINATED_UNIVERSAL_TIME_OFFSET ( 1, 0, .AHEAD. ) ;
#209 = PERSON ( 'UNSPECIFIED', 'UNSPECIFIED', 'UNSPECIFIED', ('UNSPECIFIED'), ('UNSPECIFIED'), ('UNSPECIFIED') ) ;
#210 = EDGE_CURVE ( 'NONE', #152, #152, #148, .T. ) ;
#211 = FACE_BOUND ( 'NONE', #77, .T. ) ;
#212 = AXIS2_PLACEMENT_3D ( 'NONE', #81, #99, #241 ) ;
#213 = SECURITY_CLASSIFICATION ( '', '', #228 ) ;
#214 = DATE_AND_TIME ( #68, #119 ) ;
#215 = CARTESIAN_POINT ( 'NONE',  ( 4.888073874380383542E-15, 0.0000000000000000000, 1.399999999999999023 ) ) ;
#216 = MECHANICAL_CONTEXT ( 'NONE', #46, 'mechanical' ) ;
#217 = ORIENTED_EDGE ( 'NONE', *, *, #67, .F. ) ;
#218 = CC_DESIGN_SECURITY_CLASSIFICATION ( #213, ( #193 ) ) ;
#219 = CARTESIAN_POINT ( 'NONE',  ( 1.316288464743861212E-13, -4.616918432785521081E-15, 37.69999999999999574 ) ) ;
#220 = DIRECTION ( 'NONE',  ( 3.491481338843133355E-15, -0.0000000000000000000, 1.000000000000000000 ) ) ;
#221 = FACE_OUTER_BOUND ( 'NONE', #79, .T. ) ;
#222 = DIRECTION ( 'NONE',  ( -4.275831445896958607E-31, -1.000000000000000000, -1.224646799147353207E-16 ) ) ;
#223 = AXIS2_PLACEMENT_3D ( 'NONE', #166, #50, #66 ) ;
#224 = CARTESIAN_POINT ( 'NONE',  ( 1.326762908760390423E-13, -4.653657836759941941E-15, 38.00000000000000000 ) ) ;
#225 = DIRECTION ( 'NONE',  ( 3.491481338843133355E-15, -0.0000000000000000000, 1.000000000000000000 ) ) ;
#226 = CC_DESIGN_PERSON_AND_ORGANIZATION_ASSIGNMENT ( #34, #154, ( #192 ) ) ;
#227 = AXIS2_PLACEMENT_3D ( 'NONE', #102, #82, #23 ) ;
#228 = SECURITY_CLASSIFICATION_LEVEL ( 'unclassified' ) ;
#229 = AXIS2_PLACEMENT_3D ( 'NONE', #205, #27, #144 ) ;
#230 = APPROVAL ( #163, 'UNSPECIFIED' ) ;
#231 = FACE_OUTER_BOUND ( 'NONE', #58, .T. ) ;
#232 = CARTESIAN_POINT ( 'NONE',  ( 0.0000000000000000000, 0.0000000000000000000, 0.0000000000000000000 ) ) ;
#233 = CC_DESIGN_APPROVAL ( #135, ( #193 ) ) ;
#234 = CARTESIAN_POINT ( 'NONE',  ( 1.326762908760390423E-13, -4.653657836759941941E-15, 38.00000000000000000 ) ) ;
#235 = ORIENTED_EDGE ( 'NONE', *, *, #62, .F. ) ;
#236 = DIRECTION ( 'NONE',  ( 3.491481338843133355E-15, -0.0000000000000000000, 1.000000000000000000 ) ) ;
#237 = APPROVAL_DATE_TIME ( #214, #29 ) ;
#238 = CONICAL_SURFACE ( 'NONE', #83, 1.499999999999996225, 0.2617993877991427465 ) ;
#239 = CIRCLE ( 'NONE', #60, 0.6999999999999996225 ) ;
#240 = DIRECTION ( 'NONE',  ( 3.491481338843133355E-15, -1.224646799147353207E-16, 1.000000000000000000 ) ) ;
#241 = DIRECTION ( 'NONE',  ( 1.000000000000000000, 0.0000000000000000000, -3.387477461480721144E-15 ) ) ;
#242 = APPROVAL_DATE_TIME ( #21, #230 ) ;
#243 = PLANE ( 'NONE',  #150 ) ;
ENDSEC;
END-ISO-10303-21;
