ISO-10303-21;
HEADER;
FILE_DESCRIPTION (( 'STEP AP203' ),
    '1' );
FILE_NAME ('63809.step',
    '2021-11-10T06:36:34',
    ( '' ),
    ( '' ),
    'SwSTEP 2.0',
    'SolidWorks 2019',
    '' );
FILE_SCHEMA (( 'CONFIG_CONTROL_DESIGN' ));
ENDSEC;

DATA;
#1 = CC_DESIGN_APPROVAL ( #136, ( #66 ) ) ;
#2 = FACE_OUTER_BOUND ( 'NONE', #206, .T. ) ;
#3 = FACE_OUTER_BOUND ( 'NONE', #92, .T. ) ;
#4 = DIRECTION ( 'NONE',  ( -3.491481338843133355E-15, 1.224646799147353207E-16, -1.000000000000000000 ) ) ;
#5 = TOROIDAL_SURFACE ( 'NONE', #30, 2.675000000000000266, 2.000000000000000000 ) ;
#6 = DIRECTION ( 'NONE',  ( 4.275831445896958607E-31, 1.000000000000000000, 1.224646799147352961E-16 ) ) ;
#7 = CARTESIAN_POINT ( 'NONE',  ( 4.713499807438229241E-15, 0.0000000000000000000, 1.349999999999999645 ) ) ;
#8 = DIRECTION ( 'NONE',  ( -3.491481338843133355E-15, 1.224646799147353207E-16, -1.000000000000000000 ) ) ;
#9 = PERSON_AND_ORGANIZATION_ROLE ( 'design_owner' ) ;
#10 = CIRCLE ( 'NONE', #160, 0.6749999999999998224 ) ;
#11 = PLANE ( 'NONE',  #132 ) ;
#12 = CALENDAR_DATE ( 2021, 10, 11 ) ;
#13 = APPLICATION_PROTOCOL_DEFINITION ( 'international standard', 'config_control_design', 1994, #162 ) ;
#14 = CC_DESIGN_PERSON_AND_ORGANIZATION_ASSIGNMENT ( #125, #124, ( #81 ) ) ;
#15 = PERSON_AND_ORGANIZATION_ROLE ( 'creator' ) ;
#16 = APPROVAL_STATUS ( 'not_yet_approved' ) ;
#17 = EDGE_LOOP ( 'NONE', ( #69 ) ) ;
#18 = SECURITY_CLASSIFICATION ( '', '', #103 ) ;
#19 = DIRECTION ( 'NONE',  ( 3.491481338843133355E-15, -0.0000000000000000000, 1.000000000000000000 ) ) ;
#20 = CC_DESIGN_APPROVAL ( #61, ( #18 ) ) ;
#21 = EDGE_LOOP ( 'NONE', ( #51 ) ) ;
#22 = EDGE_LOOP ( 'NONE', ( #184 ) ) ;
#23 = ORIENTED_EDGE ( 'NONE', *, *, #109, .T. ) ;
#24 = AXIS2_PLACEMENT_3D ( 'NONE', #71, #231, #40 ) ;
#25 = DIRECTION ( 'NONE',  ( -4.275831445896958607E-31, -1.000000000000000000, -1.224646799147353207E-16 ) ) ;
#26 = AXIS2_PLACEMENT_3D ( 'NONE', #233, #186, #6 ) ;
#27 = DIRECTION ( 'NONE',  ( 4.275831445896958607E-31, 1.000000000000000000, 1.224646799147353207E-16 ) ) ;
#28 = DIRECTION ( 'NONE',  ( 1.000000000000000000, 0.0000000000000000000, -3.533695969582385859E-15 ) ) ;
#29 = DIRECTION ( 'NONE',  ( 3.491481338843133355E-15, -1.224646799147353207E-16, 1.000000000000000000 ) ) ;
#30 = AXIS2_PLACEMENT_3D ( 'NONE', #7, #126, #232 ) ;
#31 = PERSON_AND_ORGANIZATION ( #151, #163 ) ;
#32 = ORIENTED_EDGE ( 'NONE', *, *, #212, .F. ) ;
#33 = DATE_AND_TIME ( #222, #76 ) ;
#34 = CIRCLE ( 'NONE', #24, 1.499999999999996225 ) ;
#35 = FACE_OUTER_BOUND ( 'NONE', #142, .T. ) ;
#36 = PLANE ( 'NONE',  #52 ) ;
#37 = APPROVAL ( #90, 'UNSPECIFIED' ) ;
#38 = ORIENTED_EDGE ( 'NONE', *, *, #226, .T. ) ;
#39 = ADVANCED_FACE ( 'NONE', ( #129, #3 ), #5, .F. ) ;
#40 = DIRECTION ( 'NONE',  ( 1.000000000000000000, 0.0000000000000000000, -3.469446951953622866E-15 ) ) ;
#41 = ADVANCED_FACE ( 'NONE', ( #89, #168 ), #83, .T. ) ;
#42 = EDGE_LOOP ( 'NONE', ( #23 ) ) ;
#43 = APPROVAL_PERSON_ORGANIZATION ( #105, #61, #159 ) ;
#44 = PRODUCT ( '63809', '63809', '', ( #192 ) ) ;
#45 = COORDINATED_UNIVERSAL_TIME_OFFSET ( 1, 0, .AHEAD. ) ;
#46 = EDGE_CURVE ( 'NONE', #133, #133, #34, .T. ) ;
#47 = VERTEX_POINT ( 'NONE', #172 ) ;
#48 = DIRECTION ( 'NONE',  ( 3.491481338843133355E-15, -0.0000000000000000000, 1.000000000000000000 ) ) ;
#49 = APPROVAL_ROLE ( '' ) ;
#50 = LOCAL_TIME ( 7, 36, 34.00000000000000000, #82 ) ;
#51 = ORIENTED_EDGE ( 'NONE', *, *, #84, .T. ) ;
#52 = AXIS2_PLACEMENT_3D ( 'NONE', #107, #131, #229 ) ;
#53 = FACE_OUTER_BOUND ( 'NONE', #221, .T. ) ;
#54 = DIRECTION ( 'NONE',  ( -3.491481338843133355E-15, 1.224646799147353207E-16, -1.000000000000000000 ) ) ;
#55 = ORIENTED_EDGE ( 'NONE', *, *, #109, .F. ) ;
#56 = VERTEX_POINT ( 'NONE', #116 ) ;
#57 = AXIS2_PLACEMENT_3D ( 'NONE', #209, #228, #108 ) ;
#58 = FACE_OUTER_BOUND ( 'NONE', #17, .T. ) ;
#59 = AXIS2_PLACEMENT_3D ( 'NONE', #115, #73, #75 ) ;
#60 = CARTESIAN_POINT ( 'NONE',  ( 0.6750000000000044853, 0.0000000000000000000, 1.349999999999996980 ) ) ;
#61 = APPROVAL ( #16, 'UNSPECIFIED' ) ;
#62 = COORDINATED_UNIVERSAL_TIME_OFFSET ( 1, 0, .AHEAD. ) ;
#63 = CALENDAR_DATE ( 2021, 10, 11 ) ;
#64 = AXIS2_PLACEMENT_3D ( 'NONE', #72, #48, #135 ) ;
#65 =( GEOMETRIC_REPRESENTATION_CONTEXT ( 3 ) GLOBAL_UNCERTAINTY_ASSIGNED_CONTEXT ( ( #191 ) ) GLOBAL_UNIT_ASSIGNED_CONTEXT ( ( #74, #152, #117 ) ) REPRESENTATION_CONTEXT ( 'NONE', 'WORKASPACE' ) );
#66 = PRODUCT_DEFINITION ( 'UNKNOWN', '', #81, #94 ) ;
#67 = DIRECTION ( 'NONE',  ( 0.0000000000000000000, 1.000000000000000000, 0.0000000000000000000 ) ) ;
#68 = DIRECTION ( 'NONE',  ( 3.491481338843133355E-15, -1.224646799147353207E-16, 1.000000000000000000 ) ) ;
#69 = ORIENTED_EDGE ( 'NONE', *, *, #242, .T. ) ;
#70 = CARTESIAN_POINT ( 'NONE',  ( 6.520823539663484833E-15, 0.0000000000000000000, 1.867638090205028467 ) ) ;
#71 = CARTESIAN_POINT ( 'NONE',  ( 1.638289252846437200E-14, 0.0000000000000000000, 4.692246911419173827 ) ) ;
#72 = CARTESIAN_POINT ( 'NONE',  ( 1.638289252846437200E-14, 0.0000000000000000000, 4.692246911419173827 ) ) ;
#73 = DIRECTION ( 'NONE',  ( 0.0000000000000000000, 0.0000000000000000000, 1.000000000000000000 ) ) ;
#74 =( LENGTH_UNIT ( ) NAMED_UNIT ( * ) SI_UNIT ( .MILLI., .METRE. ) );
#75 = DIRECTION ( 'NONE',  ( 1.000000000000000000, 0.0000000000000000000, 0.0000000000000000000 ) ) ;
#76 = LOCAL_TIME ( 7, 36, 34.00000000000000000, #45 ) ;
#77 = CARTESIAN_POINT ( 'NONE',  ( 0.6749999999999998224, 0.0000000000000000000, -2.356749903719114620E-15 ) ) ;
#78 = DATE_TIME_ROLE ( 'creation_date' ) ;
#79 = ORIENTED_EDGE ( 'NONE', *, *, #226, .F. ) ;
#80 = CIRCLE ( 'NONE', #198, 1.499999999999998446 ) ;
#81 = PRODUCT_DEFINITION_FORMATION_WITH_SPECIFIED_SOURCE ( 'ANY', '', #44, .NOT_KNOWN. ) ;
#82 = COORDINATED_UNIVERSAL_TIME_OFFSET ( 1, 0, .AHEAD. ) ;
#83 = CONICAL_SURFACE ( 'NONE', #240, 1.199999999999998845, 0.7853981633974450594 ) ;
#84 = EDGE_CURVE ( 'NONE', #47, #47, #154, .T. ) ;
#85 = AXIS2_PLACEMENT_3D ( 'NONE', #194, #29, #25 ) ;
#86 = DIRECTION ( 'NONE',  ( -4.275831445896958607E-31, -1.000000000000000000, -1.224646799147353207E-16 ) ) ;
#87 = EDGE_LOOP ( 'NONE', ( #38 ) ) ;
#88 = CC_DESIGN_PERSON_AND_ORGANIZATION_ASSIGNMENT ( #219, #15, ( #81 ) ) ;
#89 = FACE_OUTER_BOUND ( 'NONE', #170, .T. ) ;
#90 = APPROVAL_STATUS ( 'not_yet_approved' ) ;
#91 = EDGE_LOOP ( 'NONE', ( #200 ) ) ;
#92 = EDGE_LOOP ( 'NONE', ( #55 ) ) ;
#93 = DIRECTION ( 'NONE',  ( 3.491481338843133355E-15, -0.0000000000000000000, 1.000000000000000000 ) ) ;
#94 = DESIGN_CONTEXT ( 'detailed design', #162, 'design' ) ;
#95 = LOCAL_TIME ( 7, 36, 34.00000000000000000, #239 ) ;
#96 = VERTEX_POINT ( 'NONE', #236 ) ;
#97 = PRODUCT_RELATED_PRODUCT_CATEGORY ( 'detail', '', ( #44 ) ) ;
#98 = DIRECTION ( 'NONE',  ( 1.000000000000000000, 0.0000000000000000000, -3.533695969582385859E-15 ) ) ;
#99 = AXIS2_PLACEMENT_3D ( 'NONE', #190, #113, #28 ) ;
#100 = PERSON_AND_ORGANIZATION ( #151, #163 ) ;
#101 = EDGE_LOOP ( 'NONE', ( #185 ) ) ;
#102 = APPROVAL_DATE_TIME ( #243, #61 ) ;
#103 = SECURITY_CLASSIFICATION_LEVEL ( 'unclassified' ) ;
#104 = CLOSED_SHELL ( 'NONE', ( #140, #41, #223, #39, #207, #180 ) ) ;
#105 = PERSON_AND_ORGANIZATION ( #151, #163 ) ;
#106 = MANIFOLD_SOLID_BREP ( 'Corps-Déplacer/Copier1[2]', #205 ) ;
#107 = CARTESIAN_POINT ( 'NONE',  ( 4.713499807438230818E-15, -1.951563910473913651E-16, 1.350000000000000089 ) ) ;
#108 = DIRECTION ( 'NONE',  ( 1.000000000000000000, 0.0000000000000000000, -3.491481338843133750E-15 ) ) ;
#109 = EDGE_CURVE ( 'NONE', #197, #197, #187, .T. ) ;
#110 = ORIENTED_EDGE ( 'NONE', *, *, #84, .F. ) ;
#111 = FACE_OUTER_BOUND ( 'NONE', #123, .T. ) ;
#112 = FACE_OUTER_BOUND ( 'NONE', #87, .T. ) ;
#113 = DIRECTION ( 'NONE',  ( 3.491481338843133355E-15, -0.0000000000000000000, 1.000000000000000000 ) ) ;
#114 = CC_DESIGN_DATE_AND_TIME_ASSIGNMENT ( #179, #78, ( #66 ) ) ;
#115 = CARTESIAN_POINT ( 'NONE',  ( 0.0000000000000000000, 0.0000000000000000000, 0.0000000000000000000 ) ) ;
#116 = CARTESIAN_POINT ( 'NONE',  ( 0.6750000000000044853, 0.0000000000000000000, 1.349999999999996980 ) ) ;
#117 =( NAMED_UNIT ( * ) SI_UNIT ( $, .STERADIAN. ) SOLID_ANGLE_UNIT ( ) );
#118 = FACE_OUTER_BOUND ( 'NONE', #241, .T. ) ;
#119 = CALENDAR_DATE ( 2021, 10, 11 ) ;
#120 = AXIS2_PLACEMENT_3D ( 'NONE', #137, #93, #98 ) ;
#121 = CC_DESIGN_SECURITY_CLASSIFICATION ( #18, ( #81 ) ) ;
#122 = DATE_TIME_ROLE ( 'classification_date' ) ;
#123 = EDGE_LOOP ( 'NONE', ( #182 ) ) ;
#124 = PERSON_AND_ORGANIZATION_ROLE ( 'design_supplier' ) ;
#125 = PERSON_AND_ORGANIZATION ( #151, #163 ) ;
#126 = DIRECTION ( 'NONE',  ( 3.491481338843133355E-15, -0.0000000000000000000, 1.000000000000000000 ) ) ;
#127 = CARTESIAN_POINT ( 'NONE',  ( 1.326762908760390423E-13, -4.653657836759941941E-15, 38.00000000000000000 ) ) ;
#128 = ADVANCED_BREP_SHAPE_REPRESENTATION ( '63809', ( #189, #106, #59 ), #65 ) ;
#129 = FACE_OUTER_BOUND ( 'NONE', #101, .T. ) ;
#130 = FACE_OUTER_BOUND ( 'NONE', #22, .T. ) ;
#131 = DIRECTION ( 'NONE',  ( 3.491481338843133355E-15, -1.224646799147353207E-16, 1.000000000000000000 ) ) ;
#132 = AXIS2_PLACEMENT_3D ( 'NONE', #213, #8, #27 ) ;
#133 = VERTEX_POINT ( 'NONE', #157 ) ;
#134 = PERSON_AND_ORGANIZATION ( #151, #163 ) ;
#135 = DIRECTION ( 'NONE',  ( 1.000000000000000000, 0.0000000000000000000, -3.469446951953622866E-15 ) ) ;
#136 = APPROVAL ( #218, 'UNSPECIFIED' ) ;
#137 = CARTESIAN_POINT ( 'NONE',  ( 4.713499807438228452E-15, 0.0000000000000000000, 1.349999999999999423 ) ) ;
#138 = FACE_OUTER_BOUND ( 'NONE', #91, .T. ) ;
#139 = APPROVAL_DATE_TIME ( #199, #136 ) ;
#140 = ADVANCED_FACE ( 'NONE', ( #112, #130 ), #166, .T. ) ;
#141 = PERSON_AND_ORGANIZATION ( #151, #163 ) ;
#142 = EDGE_LOOP ( 'NONE', ( #32 ) ) ;
#143 = AXIS2_PLACEMENT_3D ( 'NONE', #148, #68, #86 ) ;
#144 = CALENDAR_DATE ( 2021, 10, 11 ) ;
#145 = CYLINDRICAL_SURFACE ( 'NONE', #57, 0.6749999999999998224 ) ;
#146 = DIRECTION ( 'NONE',  ( 1.000000000000000000, 0.0000000000000000000, -3.501434434985151835E-15 ) ) ;
#147 = AXIS2_PLACEMENT_3D ( 'NONE', #150, #54, #67 ) ;
#148 = CARTESIAN_POINT ( 'NONE',  ( -6.413803915257457113E-31, 2.249659577954772199E-32, -1.836986451539393076E-16 ) ) ;
#149 = CC_DESIGN_DATE_AND_TIME_ASSIGNMENT ( #201, #122, ( #18 ) ) ;
#150 = CARTESIAN_POINT ( 'NONE',  ( 1.326762908760390423E-13, -4.653657836759941941E-15, 38.00000000000000000 ) ) ;
#151 = PERSON ( 'UNSPECIFIED', 'UNSPECIFIED', 'UNSPECIFIED', ('UNSPECIFIED'), ('UNSPECIFIED'), ('UNSPECIFIED') ) ;
#152 =( NAMED_UNIT ( * ) PLANE_ANGLE_UNIT ( ) SI_UNIT ( $, .RADIAN. ) );
#153 = DIRECTION ( 'NONE',  ( 0.0000000000000000000, 1.000000000000000000, 0.0000000000000000000 ) ) ;
#154 = CIRCLE ( 'NONE', #147, 1.199999999999998845 ) ;
#155 = VERTEX_POINT ( 'NONE', #77 ) ;
#156 = APPROVAL_PERSON_ORGANIZATION ( #134, #37, #169 ) ;
#157 = CARTESIAN_POINT ( 'NONE',  ( 1.500000000000012657, 0.0000000000000000000, 4.692246911419168498 ) ) ;
#158 = EDGE_CURVE ( 'NONE', #155, #155, #10, .T. ) ;
#159 = APPROVAL_ROLE ( '' ) ;
#160 = AXIS2_PLACEMENT_3D ( 'NONE', #208, #188, #202 ) ;
#161 = ORIENTED_EDGE ( 'NONE', *, *, #242, .F. ) ;
#162 = APPLICATION_CONTEXT ( 'configuration controlled 3d designs of mechanical parts and assemblies' ) ;
#163 = ORGANIZATION ( 'UNSPECIFIED', 'UNSPECIFIED', '' ) ;
#164 = PERSON_AND_ORGANIZATION_ROLE ( 'classification_officer' ) ;
#165 = COORDINATED_UNIVERSAL_TIME_OFFSET ( 1, 0, .AHEAD. ) ;
#166 = CYLINDRICAL_SURFACE ( 'NONE', #26, 1.499999999999996447 ) ;
#167 = DIRECTION ( 'NONE',  ( 0.0000000000000000000, 1.000000000000000000, 0.0000000000000000000 ) ) ;
#168 = FACE_BOUND ( 'NONE', #21, .T. ) ;
#169 = APPROVAL_ROLE ( '' ) ;
#170 = EDGE_LOOP ( 'NONE', ( #79 ) ) ;
#171 = ORIENTED_EDGE ( 'NONE', *, *, #158, .T. ) ;
#172 = CARTESIAN_POINT ( 'NONE',  ( 1.326762908760390423E-13, 1.199999999999994182, 38.00000000000000000 ) ) ;
#173 = CC_DESIGN_PERSON_AND_ORGANIZATION_ASSIGNMENT ( #174, #9, ( #44 ) ) ;
#174 = PERSON_AND_ORGANIZATION ( #151, #163 ) ;
#175 = CONICAL_SURFACE ( 'NONE', #64, 1.499999999999996225, 0.2617993877991429130 ) ;
#176 = CARTESIAN_POINT ( 'NONE',  ( 0.7431483474218667507, 0.0000000000000000000, 1.867638090205025803 ) ) ;
#177 = ADVANCED_FACE ( 'NONE', ( #111 ), #204, .F. ) ;
#178 = PERSON_AND_ORGANIZATION_ROLE ( 'creator' ) ;
#179 = DATE_AND_TIME ( #12, #214 ) ;
#180 = ADVANCED_FACE ( 'NONE', ( #35 ), #36, .F. ) ;
#181 = LOCAL_TIME ( 7, 36, 34.00000000000000000, #165 ) ;
#182 = ORIENTED_EDGE ( 'NONE', *, *, #158, .F. ) ;
#183 = CC_DESIGN_APPROVAL ( #37, ( #81 ) ) ;
#184 = ORIENTED_EDGE ( 'NONE', *, *, #46, .T. ) ;
#185 = ORIENTED_EDGE ( 'NONE', *, *, #212, .T. ) ;
#186 = DIRECTION ( 'NONE',  ( -3.491481338843133355E-15, 1.224646799147353207E-16, -1.000000000000000000 ) ) ;
#187 = CIRCLE ( 'NONE', #225, 0.7431483474218603114 ) ;
#188 = DIRECTION ( 'NONE',  ( 3.491481338843133355E-15, -0.0000000000000000000, 1.000000000000000000 ) ) ;
#189 = MANIFOLD_SOLID_BREP ( 'Corps-Déplacer/Copier1[1]', #104 ) ;
#190 = CARTESIAN_POINT ( 'NONE',  ( 4.713499807438228452E-15, 0.0000000000000000000, 1.349999999999999423 ) ) ;
#191 = UNCERTAINTY_MEASURE_WITH_UNIT (LENGTH_MEASURE( 1.000000000000000082E-05 ), #74, 'distance_accuracy_value', 'NONE');
#192 = MECHANICAL_CONTEXT ( 'NONE', #203, 'mechanical' ) ;
#193 = APPROVAL_PERSON_ORGANIZATION ( #100, #136, #49 ) ;
#194 = CARTESIAN_POINT ( 'NONE',  ( 4.713499807438230818E-15, -1.951563910473913651E-16, 1.350000000000000089 ) ) ;
#195 = ADVANCED_FACE ( 'NONE', ( #53, #2 ), #145, .T. ) ;
#196 = PLANE ( 'NONE',  #85 ) ;
#197 = VERTEX_POINT ( 'NONE', #176 ) ;
#198 = AXIS2_PLACEMENT_3D ( 'NONE', #215, #237, #153 ) ;
#199 = DATE_AND_TIME ( #119, #95 ) ;
#200 = ORIENTED_EDGE ( 'NONE', *, *, #46, .F. ) ;
#201 = DATE_AND_TIME ( #63, #181 ) ;
#202 = DIRECTION ( 'NONE',  ( 1.000000000000000000, 0.0000000000000000000, -3.491481338843133750E-15 ) ) ;
#203 = APPLICATION_CONTEXT ( 'configuration controlled 3d designs of mechanical parts and assemblies' ) ;
#204 = PLANE ( 'NONE',  #143 ) ;
#205 = CLOSED_SHELL ( 'NONE', ( #235, #195, #177 ) ) ;
#206 = EDGE_LOOP ( 'NONE', ( #161 ) ) ;
#207 = ADVANCED_FACE ( 'NONE', ( #216, #138 ), #175, .T. ) ;
#208 = CARTESIAN_POINT ( 'NONE',  ( 0.0000000000000000000, 0.0000000000000000000, 0.0000000000000000000 ) ) ;
#209 = CARTESIAN_POINT ( 'NONE',  ( -1.786038389295302186E-30, 0.0000000000000000000, -5.115417256925931626E-16 ) ) ;
#210 = CIRCLE ( 'NONE', #99, 0.6749999999999998224 ) ;
#211 = VERTEX_POINT ( 'NONE', #60 ) ;
#212 = EDGE_CURVE ( 'NONE', #211, #211, #210, .T. ) ;
#213 = CARTESIAN_POINT ( 'NONE',  ( 1.326762908760390423E-13, 8.998558695971069014E-33, 38.00000000000000000 ) ) ;
#214 = LOCAL_TIME ( 7, 36, 34.00000000000000000, #62 ) ;
#215 = CARTESIAN_POINT ( 'NONE',  ( 1.316288464743861212E-13, -4.616918432785521081E-15, 37.69999999999999574 ) ) ;
#216 = FACE_BOUND ( 'NONE', #42, .T. ) ;
#217 = PRODUCT_DEFINITION_SHAPE ( 'NONE', 'NONE',  #66 ) ;
#218 = APPROVAL_STATUS ( 'not_yet_approved' ) ;
#219 = PERSON_AND_ORGANIZATION ( #151, #163 ) ;
#220 = CC_DESIGN_PERSON_AND_ORGANIZATION_ASSIGNMENT ( #31, #178, ( #66 ) ) ;
#221 = EDGE_LOOP ( 'NONE', ( #171 ) ) ;
#222 = CALENDAR_DATE ( 2021, 10, 11 ) ;
#223 = ADVANCED_FACE ( 'NONE', ( #118 ), #11, .F. ) ;
#224 = APPROVAL_DATE_TIME ( #33, #37 ) ;
#225 = AXIS2_PLACEMENT_3D ( 'NONE', #70, #19, #146 ) ;
#226 = EDGE_CURVE ( 'NONE', #96, #96, #80, .T. ) ;
#227 = SHAPE_DEFINITION_REPRESENTATION ( #217, #128 ) ;
#228 = DIRECTION ( 'NONE',  ( 3.491481338843133355E-15, -0.0000000000000000000, 1.000000000000000000 ) ) ;
#229 = DIRECTION ( 'NONE',  ( -4.275831445896958607E-31, -1.000000000000000000, -1.224646799147353207E-16 ) ) ;
#230 = CC_DESIGN_PERSON_AND_ORGANIZATION_ASSIGNMENT ( #141, #164, ( #18 ) ) ;
#231 = DIRECTION ( 'NONE',  ( 3.491481338843133355E-15, -0.0000000000000000000, 1.000000000000000000 ) ) ;
#232 = DIRECTION ( 'NONE',  ( 1.000000000000000000, 0.0000000000000000000, -3.491481338843133355E-15 ) ) ;
#233 = CARTESIAN_POINT ( 'NONE',  ( 0.0000000000000000000, 0.0000000000000000000, 0.0000000000000000000 ) ) ;
#234 = CIRCLE ( 'NONE', #120, 0.6749999999999998224 ) ;
#235 = ADVANCED_FACE ( 'NONE', ( #58 ), #196, .T. ) ;
#236 = CARTESIAN_POINT ( 'NONE',  ( 1.316288464743861212E-13, 1.499999999999994005, 37.69999999999999574 ) ) ;
#237 = DIRECTION ( 'NONE',  ( -3.491481338843133355E-15, 1.224646799147353207E-16, -1.000000000000000000 ) ) ;
#238 = APPLICATION_PROTOCOL_DEFINITION ( 'international standard', 'config_control_design', 1994, #203 ) ;
#239 = COORDINATED_UNIVERSAL_TIME_OFFSET ( 1, 0, .AHEAD. ) ;
#240 = AXIS2_PLACEMENT_3D ( 'NONE', #127, #4, #167 ) ;
#241 = EDGE_LOOP ( 'NONE', ( #110 ) ) ;
#242 = EDGE_CURVE ( 'NONE', #56, #56, #234, .T. ) ;
#243 = DATE_AND_TIME ( #144, #50 ) ;
ENDSEC;
END-ISO-10303-21;
