ISO-10303-21;
HEADER;
FILE_DESCRIPTION (( 'STEP AP203' ),
    '1' );
FILE_NAME ('63808.step',
    '2021-11-10T06:36:33',
    ( '' ),
    ( '' ),
    'SwSTEP 2.0',
    'SolidWorks 2019',
    '' );
FILE_SCHEMA (( 'CONFIG_CONTROL_DESIGN' ));
ENDSEC;

DATA;
#1 = ORIENTED_EDGE ( 'NONE', *, *, #169, .F. ) ;
#2 = DIRECTION ( 'NONE',  ( -3.491481338843133355E-15, 1.224646799147353207E-16, -1.000000000000000000 ) ) ;
#3 = AXIS2_PLACEMENT_3D ( 'NONE', #18, #57, #99 ) ;
#4 = EDGE_LOOP ( 'NONE', ( #1 ) ) ;
#5 = EDGE_LOOP ( 'NONE', ( #95 ) ) ;
#6 = EDGE_LOOP ( 'NONE', ( #230 ) ) ;
#7 = DIRECTION ( 'NONE',  ( 1.000000000000000000, 0.0000000000000000000, -3.491481338843133355E-15 ) ) ;
#8 = PERSON_AND_ORGANIZATION_ROLE ( 'design_supplier' ) ;
#9 = CC_DESIGN_APPROVAL ( #51, ( #188 ) ) ;
#10 = ADVANCED_FACE ( 'NONE', ( #41, #111 ), #229, .T. ) ;
#11 = DIRECTION ( 'NONE',  ( 0.0000000000000000000, 1.000000000000000000, 0.0000000000000000000 ) ) ;
#12 = DATE_AND_TIME ( #102, #20 ) ;
#13 = DIRECTION ( 'NONE',  ( 3.491481338843133355E-15, -0.0000000000000000000, 1.000000000000000000 ) ) ;
#14 = CARTESIAN_POINT ( 'NONE',  ( 1.326762908760390423E-13, -4.653657836759941941E-15, 38.00000000000000000 ) ) ;
#15 = AXIS2_PLACEMENT_3D ( 'NONE', #150, #172, #80 ) ;
#16 = DIRECTION ( 'NONE',  ( 1.000000000000000000, 0.0000000000000000000, -3.623325491601635018E-15 ) ) ;
#17 = FACE_OUTER_BOUND ( 'NONE', #19, .T. ) ;
#18 = CARTESIAN_POINT ( 'NONE',  ( -1.786038389295302186E-30, 0.0000000000000000000, -5.115417256925931626E-16 ) ) ;
#19 = EDGE_LOOP ( 'NONE', ( #97 ) ) ;
#20 = LOCAL_TIME ( 7, 36, 33.00000000000000000, #240 ) ;
#21 = ORIENTED_EDGE ( 'NONE', *, *, #122, .F. ) ;
#22 = CARTESIAN_POINT ( 'NONE',  ( 1.653407810527826930E-14, 0.0000000000000000000, 4.735548181608402629 ) ) ;
#23 =( NAMED_UNIT ( * ) SI_UNIT ( $, .STERADIAN. ) SOLID_ANGLE_UNIT ( ) );
#24 = CC_DESIGN_PERSON_AND_ORGANIZATION_ASSIGNMENT ( #179, #237, ( #223 ) ) ;
#25 = FACE_OUTER_BOUND ( 'NONE', #114, .T. ) ;
#26 = PERSON_AND_ORGANIZATION ( #35, #60 ) ;
#27 = AXIS2_PLACEMENT_3D ( 'NONE', #171, #194, #151 ) ;
#28 = DIRECTION ( 'NONE',  ( 0.0000000000000000000, 1.000000000000000000, 0.0000000000000000000 ) ) ;
#29 = COORDINATED_UNIVERSAL_TIME_OFFSET ( 1, 0, .AHEAD. ) ;
#30 = EDGE_CURVE ( 'NONE', #86, #86, #142, .T. ) ;
#31 = DIRECTION ( 'NONE',  ( 4.275831445896958607E-31, 1.000000000000000000, 1.224646799147353207E-16 ) ) ;
#32 = VERTEX_POINT ( 'NONE', #124 ) ;
#33 = SHAPE_DEFINITION_REPRESENTATION ( #78, #129 ) ;
#34 = CIRCLE ( 'NONE', #40, 0.6499999999999995781 ) ;
#35 = PERSON ( 'UNSPECIFIED', 'UNSPECIFIED', 'UNSPECIFIED', ('UNSPECIFIED'), ('UNSPECIFIED'), ('UNSPECIFIED') ) ;
#36 = EDGE_CURVE ( 'NONE', #32, #32, #156, .T. ) ;
#37 = CIRCLE ( 'NONE', #170, 0.7181483474218595120 ) ;
#38 = ADVANCED_FACE ( 'NONE', ( #55 ), #116, .F. ) ;
#39 = CARTESIAN_POINT ( 'NONE',  ( 1.326762908760390423E-13, 8.998558695971069014E-33, 38.00000000000000000 ) ) ;
#40 = AXIS2_PLACEMENT_3D ( 'NONE', #137, #201, #234 ) ;
#41 = FACE_OUTER_BOUND ( 'NONE', #189, .T. ) ;
#42 = EDGE_LOOP ( 'NONE', ( #190 ) ) ;
#43 = DIRECTION ( 'NONE',  ( 0.0000000000000000000, 1.000000000000000000, 0.0000000000000000000 ) ) ;
#44 = DIRECTION ( 'NONE',  ( -4.275831445896958607E-31, -1.000000000000000000, -1.224646799147353207E-16 ) ) ;
#45 = DIRECTION ( 'NONE',  ( 3.491481338843133355E-15, -0.0000000000000000000, 1.000000000000000000 ) ) ;
#46 = ADVANCED_FACE ( 'NONE', ( #17 ), #228, .T. ) ;
#47 = DIRECTION ( 'NONE',  ( -3.491481338843133355E-15, 1.224646799147353207E-16, -1.000000000000000000 ) ) ;
#48 = COORDINATED_UNIVERSAL_TIME_OFFSET ( 1, 0, .AHEAD. ) ;
#49 = DIRECTION ( 'NONE',  ( -3.491481338843133355E-15, 1.224646799147353207E-16, -1.000000000000000000 ) ) ;
#50 = LOCAL_TIME ( 7, 36, 33.00000000000000000, #197 ) ;
#51 = APPROVAL ( #81, 'UNSPECIFIED' ) ;
#52 = FACE_OUTER_BOUND ( 'NONE', #4, .T. ) ;
#53 = PERSON_AND_ORGANIZATION_ROLE ( 'creator' ) ;
#54 = CONICAL_SURFACE ( 'NONE', #174, 1.499999999999996225, 0.2617993877991426910 ) ;
#55 = FACE_OUTER_BOUND ( 'NONE', #136, .T. ) ;
#56 = CC_DESIGN_PERSON_AND_ORGANIZATION_ASSIGNMENT ( #26, #162, ( #178 ) ) ;
#57 = DIRECTION ( 'NONE',  ( 3.491481338843133355E-15, -0.0000000000000000000, 1.000000000000000000 ) ) ;
#58 = DIRECTION ( 'NONE',  ( 3.491481338843133355E-15, -1.224646799147353207E-16, 1.000000000000000000 ) ) ;
#59 = CC_DESIGN_PERSON_AND_ORGANIZATION_ASSIGNMENT ( #243, #71, ( #74 ) ) ;
#60 = ORGANIZATION ( 'UNSPECIFIED', 'UNSPECIFIED', '' ) ;
#61 = DATE_AND_TIME ( #125, #112 ) ;
#62 = AXIS2_PLACEMENT_3D ( 'NONE', #166, #45, #90 ) ;
#63 = FACE_BOUND ( 'NONE', #75, .T. ) ;
#64 = CARTESIAN_POINT ( 'NONE',  ( 0.7181483474218659513, 0.0000000000000000000, 1.817638090205025536 ) ) ;
#65 = APPROVAL_STATUS ( 'not_yet_approved' ) ;
#66 = APPROVAL_ROLE ( '' ) ;
#67 = CYLINDRICAL_SURFACE ( 'NONE', #117, 1.499999999999996447 ) ;
#68 = DATE_AND_TIME ( #144, #72 ) ;
#69 = APPROVAL_DATE_TIME ( #12, #115 ) ;
#70 = VERTEX_POINT ( 'NONE', #200 ) ;
#71 = PERSON_AND_ORGANIZATION_ROLE ( 'design_owner' ) ;
#72 = LOCAL_TIME ( 7, 36, 33.00000000000000000, #29 ) ;
#73 = PERSON_AND_ORGANIZATION ( #35, #60 ) ;
#74 = PRODUCT ( '63808', '63808', '', ( #204 ) ) ;
#75 = EDGE_LOOP ( 'NONE', ( #113 ) ) ;
#76 = CARTESIAN_POINT ( 'NONE',  ( 4.538925740496073362E-15, -1.879283765641546114E-16, 1.300000000000000044 ) ) ;
#77 = AXIS2_PLACEMENT_3D ( 'NONE', #39, #146, #31 ) ;
#78 = PRODUCT_DEFINITION_SHAPE ( 'NONE', 'NONE',  #223 ) ;
#79 = EDGE_LOOP ( 'NONE', ( #208 ) ) ;
#80 = DIRECTION ( 'NONE',  ( 1.000000000000000000, 0.0000000000000000000, -3.491481338843133355E-15 ) ) ;
#81 = APPROVAL_STATUS ( 'not_yet_approved' ) ;
#82 = ORIENTED_EDGE ( 'NONE', *, *, #122, .T. ) ;
#83 = UNCERTAINTY_MEASURE_WITH_UNIT (LENGTH_MEASURE( 1.000000000000000082E-05 ), #126, 'distance_accuracy_value', 'NONE');
#84 = APPROVAL_PERSON_ORGANIZATION ( #160, #51, #66 ) ;
#85 = DATE_TIME_ROLE ( 'creation_date' ) ;
#86 = VERTEX_POINT ( 'NONE', #143 ) ;
#87 = APPROVAL_ROLE ( '' ) ;
#88 = DIRECTION ( 'NONE',  ( 1.000000000000000000, 0.0000000000000000000, -3.336006684570784876E-15 ) ) ;
#89 = CLOSED_SHELL ( 'NONE', ( #177, #149, #109, #242, #101, #96 ) ) ;
#90 = DIRECTION ( 'NONE',  ( 1.000000000000000000, 0.0000000000000000000, -3.469446951953622866E-15 ) ) ;
#91 = APPROVAL_DATE_TIME ( #61, #51 ) ;
#92 = CONICAL_SURFACE ( 'NONE', #148, 1.199999999999998845, 0.7853981633974450594 ) ;
#93 = CC_DESIGN_PERSON_AND_ORGANIZATION_ASSIGNMENT ( #106, #8, ( #188 ) ) ;
#94 =( GEOMETRIC_REPRESENTATION_CONTEXT ( 3 ) GLOBAL_UNCERTAINTY_ASSIGNED_CONTEXT ( ( #83 ) ) GLOBAL_UNIT_ASSIGNED_CONTEXT ( ( #126, #119, #23 ) ) REPRESENTATION_CONTEXT ( 'NONE', 'WORKASPACE' ) );
#95 = ORIENTED_EDGE ( 'NONE', *, *, #191, .T. ) ;
#96 = ADVANCED_FACE ( 'NONE', ( #52 ), #153, .F. ) ;
#97 = ORIENTED_EDGE ( 'NONE', *, *, #130, .T. ) ;
#98 = EDGE_LOOP ( 'NONE', ( #21 ) ) ;
#99 = DIRECTION ( 'NONE',  ( 1.000000000000000000, 0.0000000000000000000, -3.491481338843133355E-15 ) ) ;
#100 = DIRECTION ( 'NONE',  ( 3.491481338843133355E-15, -0.0000000000000000000, 1.000000000000000000 ) ) ;
#101 = ADVANCED_FACE ( 'NONE', ( #118, #195 ), #54, .T. ) ;
#102 = CALENDAR_DATE ( 2021, 10, 11 ) ;
#103 = CARTESIAN_POINT ( 'NONE',  ( 0.0000000000000000000, 0.0000000000000000000, 0.0000000000000000000 ) ) ;
#104 = CARTESIAN_POINT ( 'NONE',  ( 1.500000000000012657, 0.0000000000000000000, 4.735548181608397300 ) ) ;
#105 = DIRECTION ( 'NONE',  ( 3.491481338843133355E-15, -0.0000000000000000000, 1.000000000000000000 ) ) ;
#106 = PERSON_AND_ORGANIZATION ( #35, #60 ) ;
#107 = AXIS2_PLACEMENT_3D ( 'NONE', #220, #47, #28 ) ;
#108 = DIRECTION ( 'NONE',  ( 1.000000000000000000, 0.0000000000000000000, 0.0000000000000000000 ) ) ;
#109 = ADVANCED_FACE ( 'NONE', ( #131 ), #206, .F. ) ;
#110 = APPROVAL_PERSON_ORGANIZATION ( #120, #115, #87 ) ;
#111 = FACE_OUTER_BOUND ( 'NONE', #192, .T. ) ;
#112 = LOCAL_TIME ( 7, 36, 33.00000000000000000, #48 ) ;
#113 = ORIENTED_EDGE ( 'NONE', *, *, #196, .T. ) ;
#114 = EDGE_LOOP ( 'NONE', ( #135 ) ) ;
#115 = APPROVAL ( #213, 'UNSPECIFIED' ) ;
#116 = PLANE ( 'NONE',  #27 ) ;
#117 = AXIS2_PLACEMENT_3D ( 'NONE', #103, #121, #158 ) ;
#118 = FACE_BOUND ( 'NONE', #5, .T. ) ;
#119 =( NAMED_UNIT ( * ) PLANE_ANGLE_UNIT ( ) SI_UNIT ( $, .RADIAN. ) );
#120 = PERSON_AND_ORGANIZATION ( #35, #60 ) ;
#121 = DIRECTION ( 'NONE',  ( -3.491481338843133355E-15, 1.224646799147353207E-16, -1.000000000000000000 ) ) ;
#122 = EDGE_CURVE ( 'NONE', #141, #141, #227, .T. ) ;
#123 = TOROIDAL_SURFACE ( 'NONE', #218, 2.649999999999999467, 2.000000000000000000 ) ;
#124 = CARTESIAN_POINT ( 'NONE',  ( 1.316288464743861212E-13, 1.499999999999994005, 37.69999999999999574 ) ) ;
#125 = CALENDAR_DATE ( 2021, 10, 11 ) ;
#126 =( LENGTH_UNIT ( ) NAMED_UNIT ( * ) SI_UNIT ( .MILLI., .METRE. ) );
#127 = APPROVAL_DATE_TIME ( #221, #217 ) ;
#128 = DIRECTION ( 'NONE',  ( 0.0000000000000000000, 0.0000000000000000000, 1.000000000000000000 ) ) ;
#129 = ADVANCED_BREP_SHAPE_REPRESENTATION ( '63808', ( #187, #193, #203 ), #94 ) ;
#130 = EDGE_CURVE ( 'NONE', #70, #70, #239, .T. ) ;
#131 = FACE_OUTER_BOUND ( 'NONE', #79, .T. ) ;
#132 = EDGE_LOOP ( 'NONE', ( #82 ) ) ;
#133 = CLOSED_SHELL ( 'NONE', ( #46, #10, #38 ) ) ;
#134 = CARTESIAN_POINT ( 'NONE',  ( 4.538925740496073362E-15, -1.879283765641546114E-16, 1.300000000000000044 ) ) ;
#135 = ORIENTED_EDGE ( 'NONE', *, *, #36, .F. ) ;
#136 = EDGE_LOOP ( 'NONE', ( #154 ) ) ;
#137 = CARTESIAN_POINT ( 'NONE',  ( 4.538925740496070995E-15, 0.0000000000000000000, 1.299999999999999378 ) ) ;
#138 = CARTESIAN_POINT ( 'NONE',  ( 6.346249472721327376E-15, 0.0000000000000000000, 1.817638090205028201 ) ) ;
#139 = CC_DESIGN_DATE_AND_TIME_ASSIGNMENT ( #145, #85, ( #223 ) ) ;
#140 = CALENDAR_DATE ( 2021, 10, 11 ) ;
#141 = VERTEX_POINT ( 'NONE', #104 ) ;
#142 = CIRCLE ( 'NONE', #15, 0.6500000000000000222 ) ;
#143 = CARTESIAN_POINT ( 'NONE',  ( 0.6500000000000000222, 0.0000000000000000000, -2.269462870248036681E-15 ) ) ;
#144 = CALENDAR_DATE ( 2021, 10, 11 ) ;
#145 = DATE_AND_TIME ( #140, #50 ) ;
#146 = DIRECTION ( 'NONE',  ( -3.491481338843133355E-15, 1.224646799147353207E-16, -1.000000000000000000 ) ) ;
#147 = CARTESIAN_POINT ( 'NONE',  ( 0.0000000000000000000, 0.0000000000000000000, 0.0000000000000000000 ) ) ;
#148 = AXIS2_PLACEMENT_3D ( 'NONE', #14, #49, #11 ) ;
#149 = ADVANCED_FACE ( 'NONE', ( #25, #63 ), #92, .T. ) ;
#150 = CARTESIAN_POINT ( 'NONE',  ( 0.0000000000000000000, 0.0000000000000000000, 0.0000000000000000000 ) ) ;
#151 = DIRECTION ( 'NONE',  ( -4.275831445896958607E-31, -1.000000000000000000, -1.224646799147353207E-16 ) ) ;
#152 = ORIENTED_EDGE ( 'NONE', *, *, #169, .T. ) ;
#153 = PLANE ( 'NONE',  #184 ) ;
#154 = ORIENTED_EDGE ( 'NONE', *, *, #30, .F. ) ;
#155 = APPLICATION_CONTEXT ( 'configuration controlled 3d designs of mechanical parts and assemblies' ) ;
#156 = CIRCLE ( 'NONE', #205, 1.499999999999998446 ) ;
#157 = APPLICATION_PROTOCOL_DEFINITION ( 'international standard', 'config_control_design', 1994, #155 ) ;
#158 = DIRECTION ( 'NONE',  ( 4.275831445896958607E-31, 1.000000000000000000, 1.224646799147352961E-16 ) ) ;
#159 = PERSON_AND_ORGANIZATION ( #35, #60 ) ;
#160 = PERSON_AND_ORGANIZATION ( #35, #60 ) ;
#161 = FACE_OUTER_BOUND ( 'NONE', #42, .T. ) ;
#162 = PERSON_AND_ORGANIZATION_ROLE ( 'classification_officer' ) ;
#163 = APPLICATION_CONTEXT ( 'configuration controlled 3d designs of mechanical parts and assemblies' ) ;
#164 = CC_DESIGN_APPROVAL ( #115, ( #223 ) ) ;
#165 = CC_DESIGN_APPROVAL ( #217, ( #178 ) ) ;
#166 = CARTESIAN_POINT ( 'NONE',  ( 1.653407810527826930E-14, 0.0000000000000000000, 4.735548181608402629 ) ) ;
#167 = CC_DESIGN_DATE_AND_TIME_ASSIGNMENT ( #68, #235, ( #178 ) ) ;
#168 = AXIS2_PLACEMENT_3D ( 'NONE', #76, #176, #226 ) ;
#169 = EDGE_CURVE ( 'NONE', #215, #215, #34, .T. ) ;
#170 = AXIS2_PLACEMENT_3D ( 'NONE', #138, #199, #16 ) ;
#171 = CARTESIAN_POINT ( 'NONE',  ( -6.413803915257457113E-31, 2.249659577954772199E-32, -1.836986451539393076E-16 ) ) ;
#172 = DIRECTION ( 'NONE',  ( 3.491481338843133355E-15, -0.0000000000000000000, 1.000000000000000000 ) ) ;
#173 = ORIENTED_EDGE ( 'NONE', *, *, #30, .T. ) ;
#174 = AXIS2_PLACEMENT_3D ( 'NONE', #22, #100, #231 ) ;
#175 = CARTESIAN_POINT ( 'NONE',  ( 1.316288464743861212E-13, -4.616918432785521081E-15, 37.69999999999999574 ) ) ;
#176 = DIRECTION ( 'NONE',  ( 3.491481338843133355E-15, -1.224646799147353207E-16, 1.000000000000000000 ) ) ;
#177 = ADVANCED_FACE ( 'NONE', ( #238, #241 ), #67, .T. ) ;
#178 = SECURITY_CLASSIFICATION ( '', '', #186 ) ;
#179 = PERSON_AND_ORGANIZATION ( #35, #60 ) ;
#180 = PRODUCT_RELATED_PRODUCT_CATEGORY ( 'detail', '', ( #74 ) ) ;
#181 = COORDINATED_UNIVERSAL_TIME_OFFSET ( 1, 0, .AHEAD. ) ;
#182 = VERTEX_POINT ( 'NONE', #64 ) ;
#183 = APPROVAL_ROLE ( '' ) ;
#184 = AXIS2_PLACEMENT_3D ( 'NONE', #134, #58, #44 ) ;
#185 = CARTESIAN_POINT ( 'NONE',  ( 4.538925740496070995E-15, 0.0000000000000000000, 1.299999999999999378 ) ) ;
#186 = SECURITY_CLASSIFICATION_LEVEL ( 'unclassified' ) ;
#187 = MANIFOLD_SOLID_BREP ( 'Corps-Déplacer/Copier1[1]', #89 ) ;
#188 = PRODUCT_DEFINITION_FORMATION_WITH_SPECIFIED_SOURCE ( 'ANY', '', #74, .NOT_KNOWN. ) ;
#189 = EDGE_LOOP ( 'NONE', ( #173 ) ) ;
#190 = ORIENTED_EDGE ( 'NONE', *, *, #191, .F. ) ;
#191 = EDGE_CURVE ( 'NONE', #182, #182, #37, .T. ) ;
#192 = EDGE_LOOP ( 'NONE', ( #211 ) ) ;
#193 = MANIFOLD_SOLID_BREP ( 'Corps-Déplacer/Copier1[2]', #133 ) ;
#194 = DIRECTION ( 'NONE',  ( 3.491481338843133355E-15, -1.224646799147353207E-16, 1.000000000000000000 ) ) ;
#195 = FACE_OUTER_BOUND ( 'NONE', #98, .T. ) ;
#196 = EDGE_CURVE ( 'NONE', #216, #216, #207, .T. ) ;
#197 = COORDINATED_UNIVERSAL_TIME_OFFSET ( 1, 0, .AHEAD. ) ;
#198 = CARTESIAN_POINT ( 'NONE',  ( 4.538925740496071784E-15, 0.0000000000000000000, 1.299999999999999600 ) ) ;
#199 = DIRECTION ( 'NONE',  ( 3.491481338843133355E-15, -0.0000000000000000000, 1.000000000000000000 ) ) ;
#200 = CARTESIAN_POINT ( 'NONE',  ( 0.6500000000000041300, 0.0000000000000000000, 1.299999999999997158 ) ) ;
#201 = DIRECTION ( 'NONE',  ( 3.491481338843133355E-15, -0.0000000000000000000, 1.000000000000000000 ) ) ;
#202 = CALENDAR_DATE ( 2021, 10, 11 ) ;
#203 = AXIS2_PLACEMENT_3D ( 'NONE', #147, #128, #108 ) ;
#204 = MECHANICAL_CONTEXT ( 'NONE', #155, 'mechanical' ) ;
#205 = AXIS2_PLACEMENT_3D ( 'NONE', #175, #2, #43 ) ;
#206 = PLANE ( 'NONE',  #77 ) ;
#207 = CIRCLE ( 'NONE', #107, 1.199999999999998845 ) ;
#208 = ORIENTED_EDGE ( 'NONE', *, *, #196, .F. ) ;
#209 = CC_DESIGN_PERSON_AND_ORGANIZATION_ASSIGNMENT ( #73, #53, ( #188 ) ) ;
#210 = EDGE_LOOP ( 'NONE', ( #152 ) ) ;
#211 = ORIENTED_EDGE ( 'NONE', *, *, #130, .F. ) ;
#212 = AXIS2_PLACEMENT_3D ( 'NONE', #185, #13, #88 ) ;
#213 = APPROVAL_STATUS ( 'not_yet_approved' ) ;
#214 = CARTESIAN_POINT ( 'NONE',  ( 0.6500000000000041300, 0.0000000000000000000, 1.299999999999997158 ) ) ;
#215 = VERTEX_POINT ( 'NONE', #214 ) ;
#216 = VERTEX_POINT ( 'NONE', #222 ) ;
#217 = APPROVAL ( #65, 'UNSPECIFIED' ) ;
#218 = AXIS2_PLACEMENT_3D ( 'NONE', #198, #105, #7 ) ;
#219 = LOCAL_TIME ( 7, 36, 33.00000000000000000, #181 ) ;
#220 = CARTESIAN_POINT ( 'NONE',  ( 1.326762908760390423E-13, -4.653657836759941941E-15, 38.00000000000000000 ) ) ;
#221 = DATE_AND_TIME ( #202, #219 ) ;
#222 = CARTESIAN_POINT ( 'NONE',  ( 1.326762908760390423E-13, 1.199999999999994182, 38.00000000000000000 ) ) ;
#223 = PRODUCT_DEFINITION ( 'UNKNOWN', '', #188, #233 ) ;
#224 = APPLICATION_PROTOCOL_DEFINITION ( 'international standard', 'config_control_design', 1994, #163 ) ;
#225 = CC_DESIGN_SECURITY_CLASSIFICATION ( #178, ( #188 ) ) ;
#226 = DIRECTION ( 'NONE',  ( -4.275831445896958607E-31, -1.000000000000000000, -1.224646799147353207E-16 ) ) ;
#227 = CIRCLE ( 'NONE', #62, 1.499999999999996225 ) ;
#228 = PLANE ( 'NONE',  #168 ) ;
#229 = CYLINDRICAL_SURFACE ( 'NONE', #3, 0.6499999999999998002 ) ;
#230 = ORIENTED_EDGE ( 'NONE', *, *, #36, .T. ) ;
#231 = DIRECTION ( 'NONE',  ( 1.000000000000000000, 0.0000000000000000000, -3.469446951953622866E-15 ) ) ;
#232 = APPROVAL_PERSON_ORGANIZATION ( #159, #217, #183 ) ;
#233 = DESIGN_CONTEXT ( 'detailed design', #163, 'design' ) ;
#234 = DIRECTION ( 'NONE',  ( 1.000000000000000000, 0.0000000000000000000, -3.336006684570784876E-15 ) ) ;
#235 = DATE_TIME_ROLE ( 'classification_date' ) ;
#236 = FACE_OUTER_BOUND ( 'NONE', #210, .T. ) ;
#237 = PERSON_AND_ORGANIZATION_ROLE ( 'creator' ) ;
#238 = FACE_OUTER_BOUND ( 'NONE', #6, .T. ) ;
#239 = CIRCLE ( 'NONE', #212, 0.6499999999999995781 ) ;
#240 = COORDINATED_UNIVERSAL_TIME_OFFSET ( 1, 0, .AHEAD. ) ;
#241 = FACE_OUTER_BOUND ( 'NONE', #132, .T. ) ;
#242 = ADVANCED_FACE ( 'NONE', ( #236, #161 ), #123, .F. ) ;
#243 = PERSON_AND_ORGANIZATION ( #35, #60 ) ;
ENDSEC;
END-ISO-10303-21;
