ISO-10303-21;
HEADER;
FILE_DESCRIPTION (( 'STEP AP203' ),
    '1' );
FILE_NAME ('63807.step',
    '2021-11-10T06:36:32',
    ( '' ),
    ( '' ),
    'SwSTEP 2.0',
    'SolidWorks 2019',
    '' );
FILE_SCHEMA (( 'CONFIG_CONTROL_DESIGN' ));
ENDSEC;

DATA;
#1 = APPLICATION_CONTEXT ( 'configuration controlled 3d designs of mechanical parts and assemblies' ) ;
#2 = DIRECTION ( 'NONE',  ( -3.491481338843133355E-15, 1.224646799147353207E-16, -1.000000000000000000 ) ) ;
#3 = ORIENTED_EDGE ( 'NONE', *, *, #59, .T. ) ;
#4 = DIRECTION ( 'NONE',  ( 1.000000000000000000, 0.0000000000000000000, -3.469446951953616161E-15 ) ) ;
#5 = ORIENTED_EDGE ( 'NONE', *, *, #52, .F. ) ;
#6 = DIRECTION ( 'NONE',  ( 0.0000000000000000000, 1.000000000000000000, 0.0000000000000000000 ) ) ;
#7 = EDGE_LOOP ( 'NONE', ( #10 ) ) ;
#8 = EDGE_CURVE ( 'NONE', #242, #242, #243, .T. ) ;
#9 = AXIS2_PLACEMENT_3D ( 'NONE', #87, #12, #72 ) ;
#10 = ORIENTED_EDGE ( 'NONE', *, *, #39, .F. ) ;
#11 = APPROVAL_DATE_TIME ( #239, #166 ) ;
#12 = DIRECTION ( 'NONE',  ( 0.0000000000000000000, 0.0000000000000000000, 1.000000000000000000 ) ) ;
#13 = CONICAL_SURFACE ( 'NONE', #235, 1.499999999999996225, 0.2617993877991429685 ) ;
#14 = CC_DESIGN_DATE_AND_TIME_ASSIGNMENT ( #145, #161, ( #92 ) ) ;
#15 = MECHANICAL_CONTEXT ( 'NONE', #146, 'mechanical' ) ;
#16 = PERSON_AND_ORGANIZATION_ROLE ( 'classification_officer' ) ;
#17 = EDGE_CURVE ( 'NONE', #81, #81, #46, .T. ) ;
#18 = VERTEX_POINT ( 'NONE', #58 ) ;
#19 = CC_DESIGN_APPROVAL ( #128, ( #92 ) ) ;
#20 = DIRECTION ( 'NONE',  ( 3.491481338843133355E-15, -0.0000000000000000000, 1.000000000000000000 ) ) ;
#21 = CARTESIAN_POINT ( 'NONE',  ( 0.6250000000000039968, 0.0000000000000000000, 1.249999999999996891 ) ) ;
#22 = FACE_OUTER_BOUND ( 'NONE', #213, .T. ) ;
#23 = AXIS2_PLACEMENT_3D ( 'NONE', #25, #117, #6 ) ;
#24 = DIRECTION ( 'NONE',  ( 0.0000000000000000000, 1.000000000000000000, 0.0000000000000000000 ) ) ;
#25 = CARTESIAN_POINT ( 'NONE',  ( 1.326762908760390423E-13, -4.653657836759941941E-15, 38.00000000000000000 ) ) ;
#26 = PRODUCT_DEFINITION ( 'UNKNOWN', '', #80, #186 ) ;
#27 = EDGE_LOOP ( 'NONE', ( #79 ) ) ;
#28 = AXIS2_PLACEMENT_3D ( 'NONE', #176, #211, #169 ) ;
#29 = APPLICATION_PROTOCOL_DEFINITION ( 'international standard', 'config_control_design', 1994, #1 ) ;
#30 = DATE_AND_TIME ( #163, #187 ) ;
#31 = CONICAL_SURFACE ( 'NONE', #174, 1.199999999999998845, 0.7853981633974450594 ) ;
#32 = PERSON_AND_ORGANIZATION ( #57, #240 ) ;
#33 = APPROVAL_ROLE ( '' ) ;
#34 = ADVANCED_FACE ( 'NONE', ( #160 ), #192, .F. ) ;
#35 =( NAMED_UNIT ( * ) SI_UNIT ( $, .STERADIAN. ) SOLID_ANGLE_UNIT ( ) );
#36 = CIRCLE ( 'NONE', #23, 1.199999999999998845 ) ;
#37 = UNCERTAINTY_MEASURE_WITH_UNIT (LENGTH_MEASURE( 1.000000000000000082E-05 ), #91, 'distance_accuracy_value', 'NONE');
#38 = DIRECTION ( 'NONE',  ( -4.275831445896958607E-31, -1.000000000000000000, -1.224646799147353207E-16 ) ) ;
#39 = EDGE_CURVE ( 'NONE', #75, #75, #76, .T. ) ;
#40 = CARTESIAN_POINT ( 'NONE',  ( 1.316288464743861212E-13, -4.616918432785521081E-15, 37.69999999999999574 ) ) ;
#41 = CC_DESIGN_APPROVAL ( #166, ( #80 ) ) ;
#42 = DIRECTION ( 'NONE',  ( 3.491481338843133355E-15, -0.0000000000000000000, 1.000000000000000000 ) ) ;
#43 = ORIENTED_EDGE ( 'NONE', *, *, #17, .T. ) ;
#44 = EDGE_LOOP ( 'NONE', ( #3 ) ) ;
#45 = FACE_OUTER_BOUND ( 'NONE', #198, .T. ) ;
#46 = CIRCLE ( 'NONE', #182, 0.6931483474218597118 ) ;
#47 = ADVANCED_BREP_SHAPE_REPRESENTATION ( '63807', ( #196, #189, #9 ), #126 ) ;
#48 = DIRECTION ( 'NONE',  ( 1.000000000000000000, 0.0000000000000000000, -3.469446951953622866E-15 ) ) ;
#49 = CARTESIAN_POINT ( 'NONE',  ( -6.413803915257457113E-31, 2.249659577954772199E-32, -1.836986451539393076E-16 ) ) ;
#50 = PERSON_AND_ORGANIZATION ( #57, #240 ) ;
#51 = APPROVAL_STATUS ( 'not_yet_approved' ) ;
#52 = EDGE_CURVE ( 'NONE', #230, #230, #214, .T. ) ;
#53 = PERSON_AND_ORGANIZATION_ROLE ( 'creator' ) ;
#54 = CALENDAR_DATE ( 2021, 10, 11 ) ;
#55 = FACE_OUTER_BOUND ( 'NONE', #136, .T. ) ;
#56 = CC_DESIGN_PERSON_AND_ORGANIZATION_ASSIGNMENT ( #68, #16, ( #92 ) ) ;
#57 = PERSON ( 'UNSPECIFIED', 'UNSPECIFIED', 'UNSPECIFIED', ('UNSPECIFIED'), ('UNSPECIFIED'), ('UNSPECIFIED') ) ;
#58 = CARTESIAN_POINT ( 'NONE',  ( 0.6250000000000039968, 0.0000000000000000000, 1.249999999999996891 ) ) ;
#59 = EDGE_CURVE ( 'NONE', #97, #97, #36, .T. ) ;
#60 = DIRECTION ( 'NONE',  ( -4.275831445896958607E-31, -1.000000000000000000, -1.224646799147353207E-16 ) ) ;
#61 = AXIS2_PLACEMENT_3D ( 'NONE', #195, #99, #38 ) ;
#62 = DIRECTION ( 'NONE',  ( 4.275831445896958607E-31, 1.000000000000000000, 1.224646799147352961E-16 ) ) ;
#63 = ORIENTED_EDGE ( 'NONE', *, *, #133, .T. ) ;
#64 = EDGE_LOOP ( 'NONE', ( #86 ) ) ;
#65 = EDGE_LOOP ( 'NONE', ( #43 ) ) ;
#66 = TOROIDAL_SURFACE ( 'NONE', #167, 2.624999999999999556, 2.000000000000000000 ) ;
#67 = APPROVAL_ROLE ( '' ) ;
#68 = PERSON_AND_ORGANIZATION ( #57, #240 ) ;
#69 = CALENDAR_DATE ( 2021, 10, 11 ) ;
#70 = ADVANCED_FACE ( 'NONE', ( #22 ), #98, .T. ) ;
#71 = DATE_AND_TIME ( #203, #85 ) ;
#72 = DIRECTION ( 'NONE',  ( 1.000000000000000000, 0.0000000000000000000, 0.0000000000000000000 ) ) ;
#73 = AXIS2_PLACEMENT_3D ( 'NONE', #74, #134, #4 ) ;
#74 = CARTESIAN_POINT ( 'NONE',  ( 4.364351673553913539E-15, 0.0000000000000000000, 1.249999999999999112 ) ) ;
#75 = VERTEX_POINT ( 'NONE', #185 ) ;
#76 = CIRCLE ( 'NONE', #162, 0.6250000000000001110 ) ;
#77 = ADVANCED_FACE ( 'NONE', ( #231, #216 ), #31, .T. ) ;
#78 = CARTESIAN_POINT ( 'NONE',  ( 6.171675405779171497E-15, 0.0000000000000000000, 1.767638090205028156 ) ) ;
#79 = ORIENTED_EDGE ( 'NONE', *, *, #52, .T. ) ;
#80 = PRODUCT_DEFINITION_FORMATION_WITH_SPECIFIED_SOURCE ( 'ANY', '', #113, .NOT_KNOWN. ) ;
#81 = VERTEX_POINT ( 'NONE', #209 ) ;
#82 = ORIENTED_EDGE ( 'NONE', *, *, #225, .F. ) ;
#83 = DIRECTION ( 'NONE',  ( 1.000000000000000000, 0.0000000000000000000, -3.469446951953622866E-15 ) ) ;
#84 = CARTESIAN_POINT ( 'NONE',  ( 0.0000000000000000000, 0.0000000000000000000, 0.0000000000000000000 ) ) ;
#85 = LOCAL_TIME ( 7, 36, 32.00000000000000000, #204 ) ;
#86 = ORIENTED_EDGE ( 'NONE', *, *, #39, .T. ) ;
#87 = CARTESIAN_POINT ( 'NONE',  ( 0.0000000000000000000, 0.0000000000000000000, 0.0000000000000000000 ) ) ;
#88 = AXIS2_PLACEMENT_3D ( 'NONE', #124, #208, #62 ) ;
#89 = PERSON_AND_ORGANIZATION ( #57, #240 ) ;
#90 = APPROVAL_ROLE ( '' ) ;
#91 =( LENGTH_UNIT ( ) NAMED_UNIT ( * ) SI_UNIT ( .MILLI., .METRE. ) );
#92 = SECURITY_CLASSIFICATION ( '', '', #237 ) ;
#93 = CARTESIAN_POINT ( 'NONE',  ( -1.786038389295302186E-30, 0.0000000000000000000, -5.115417256925931626E-16 ) ) ;
#94 = CLOSED_SHELL ( 'NONE', ( #70, #148, #34 ) ) ;
#95 = CC_DESIGN_PERSON_AND_ORGANIZATION_ASSIGNMENT ( #219, #53, ( #26 ) ) ;
#96 = DIRECTION ( 'NONE',  ( 3.491481338843133355E-15, -0.0000000000000000000, 1.000000000000000000 ) ) ;
#97 = VERTEX_POINT ( 'NONE', #111 ) ;
#98 = PLANE ( 'NONE',  #170 ) ;
#99 = DIRECTION ( 'NONE',  ( 3.491481338843133355E-15, -1.224646799147353207E-16, 1.000000000000000000 ) ) ;
#100 = DIRECTION ( 'NONE',  ( 3.491481338843133355E-15, -0.0000000000000000000, 1.000000000000000000 ) ) ;
#101 = CARTESIAN_POINT ( 'NONE',  ( 1.668526368209214136E-14, 0.0000000000000000000, 4.778849451797623438 ) ) ;
#102 = ORIENTED_EDGE ( 'NONE', *, *, #8, .F. ) ;
#103 = ADVANCED_FACE ( 'NONE', ( #229, #172 ), #115, .T. ) ;
#104 = COORDINATED_UNIVERSAL_TIME_OFFSET ( 1, 0, .AHEAD. ) ;
#105 = AXIS2_PLACEMENT_3D ( 'NONE', #179, #20, #142 ) ;
#106 = APPROVAL_DATE_TIME ( #218, #128 ) ;
#107 = PRODUCT_RELATED_PRODUCT_CATEGORY ( 'detail', '', ( #113 ) ) ;
#108 = CLOSED_SHELL ( 'NONE', ( #103, #77, #217, #207, #144, #233 ) ) ;
#109 = PERSON_AND_ORGANIZATION_ROLE ( 'creator' ) ;
#110 = PERSON_AND_ORGANIZATION_ROLE ( 'design_owner' ) ;
#111 = CARTESIAN_POINT ( 'NONE',  ( 1.326762908760390423E-13, 1.199999999999994182, 38.00000000000000000 ) ) ;
#112 = FACE_OUTER_BOUND ( 'NONE', #27, .T. ) ;
#113 = PRODUCT ( '63807', '63807', '', ( #15 ) ) ;
#114 = APPROVAL_PERSON_ORGANIZATION ( #89, #183, #90 ) ;
#115 = CYLINDRICAL_SURFACE ( 'NONE', #88, 1.499999999999996447 ) ;
#116 = DIRECTION ( 'NONE',  ( 3.491481338843133355E-15, -0.0000000000000000000, 1.000000000000000000 ) ) ;
#117 = DIRECTION ( 'NONE',  ( -3.491481338843133355E-15, 1.224646799147353207E-16, -1.000000000000000000 ) ) ;
#118 = ORIENTED_EDGE ( 'NONE', *, *, #225, .T. ) ;
#119 = AXIS2_PLACEMENT_3D ( 'NONE', #93, #42, #173 ) ;
#120 = CARTESIAN_POINT ( 'NONE',  ( 1.668526368209214136E-14, 0.0000000000000000000, 4.778849451797623438 ) ) ;
#121 = ORIENTED_EDGE ( 'NONE', *, *, #17, .F. ) ;
#122 = ORIENTED_EDGE ( 'NONE', *, *, #133, .F. ) ;
#123 = EDGE_LOOP ( 'NONE', ( #228 ) ) ;
#124 = CARTESIAN_POINT ( 'NONE',  ( 0.0000000000000000000, 0.0000000000000000000, 0.0000000000000000000 ) ) ;
#125 = CC_DESIGN_PERSON_AND_ORGANIZATION_ASSIGNMENT ( #129, #109, ( #80 ) ) ;
#126 =( GEOMETRIC_REPRESENTATION_CONTEXT ( 3 ) GLOBAL_UNCERTAINTY_ASSIGNED_CONTEXT ( ( #37 ) ) GLOBAL_UNIT_ASSIGNED_CONTEXT ( ( #91, #139, #35 ) ) REPRESENTATION_CONTEXT ( 'NONE', 'WORKASPACE' ) );
#127 = PERSON_AND_ORGANIZATION_ROLE ( 'design_supplier' ) ;
#128 = APPROVAL ( #202, 'UNSPECIFIED' ) ;
#129 = PERSON_AND_ORGANIZATION ( #57, #240 ) ;
#130 = CC_DESIGN_SECURITY_CLASSIFICATION ( #92, ( #80 ) ) ;
#131 = APPROVAL_STATUS ( 'not_yet_approved' ) ;
#132 = SHAPE_DEFINITION_REPRESENTATION ( #223, #47 ) ;
#133 = EDGE_CURVE ( 'NONE', #153, #153, #152, .T. ) ;
#134 = DIRECTION ( 'NONE',  ( 3.491481338843133355E-15, -0.0000000000000000000, 1.000000000000000000 ) ) ;
#135 = DIRECTION ( 'NONE',  ( 3.491481338843133355E-15, -0.0000000000000000000, 1.000000000000000000 ) ) ;
#136 = EDGE_LOOP ( 'NONE', ( #5 ) ) ;
#137 = CC_DESIGN_APPROVAL ( #183, ( #26 ) ) ;
#138 = DIRECTION ( 'NONE',  ( 1.000000000000000000, 0.0000000000000000000, -3.491481338843133355E-15 ) ) ;
#139 =( NAMED_UNIT ( * ) PLANE_ANGLE_UNIT ( ) SI_UNIT ( $, .RADIAN. ) );
#140 = FACE_BOUND ( 'NONE', #65, .T. ) ;
#141 = AXIS2_PLACEMENT_3D ( 'NONE', #49, #226, #60 ) ;
#142 = DIRECTION ( 'NONE',  ( 1.000000000000000000, 0.0000000000000000000, -3.469446951953616161E-15 ) ) ;
#143 = DIRECTION ( 'NONE',  ( 3.491481338843133355E-15, -0.0000000000000000000, 1.000000000000000000 ) ) ;
#144 = ADVANCED_FACE ( 'NONE', ( #140, #45 ), #13, .T. ) ;
#145 = DATE_AND_TIME ( #69, #190 ) ;
#146 = APPLICATION_CONTEXT ( 'configuration controlled 3d designs of mechanical parts and assemblies' ) ;
#147 = PERSON_AND_ORGANIZATION ( #57, #240 ) ;
#148 = ADVANCED_FACE ( 'NONE', ( #159, #158 ), #206, .T. ) ;
#149 = CIRCLE ( 'NONE', #73, 0.6249999999999996669 ) ;
#150 = COORDINATED_UNIVERSAL_TIME_OFFSET ( 1, 0, .AHEAD. ) ;
#151 = CARTESIAN_POINT ( 'NONE',  ( 4.364351673553914328E-15, 0.0000000000000000000, 1.249999999999999334 ) ) ;
#152 = CIRCLE ( 'NONE', #197, 1.499999999999998446 ) ;
#153 = VERTEX_POINT ( 'NONE', #224 ) ;
#154 = ORIENTED_EDGE ( 'NONE', *, *, #8, .T. ) ;
#155 = EDGE_LOOP ( 'NONE', ( #154 ) ) ;
#156 = CARTESIAN_POINT ( 'NONE',  ( 1.500000000000012879, 0.0000000000000000000, 4.778849451797618109 ) ) ;
#157 = CARTESIAN_POINT ( 'NONE',  ( 1.326762908760390423E-13, -4.653657836759941941E-15, 38.00000000000000000 ) ) ;
#158 = FACE_OUTER_BOUND ( 'NONE', #210, .T. ) ;
#159 = FACE_OUTER_BOUND ( 'NONE', #64, .T. ) ;
#160 = FACE_OUTER_BOUND ( 'NONE', #7, .T. ) ;
#161 = DATE_TIME_ROLE ( 'classification_date' ) ;
#162 = AXIS2_PLACEMENT_3D ( 'NONE', #84, #96, #138 ) ;
#163 = CALENDAR_DATE ( 2021, 10, 11 ) ;
#164 = APPROVAL_DATE_TIME ( #71, #183 ) ;
#165 = APPLICATION_PROTOCOL_DEFINITION ( 'international standard', 'config_control_design', 1994, #146 ) ;
#166 = APPROVAL ( #131, 'UNSPECIFIED' ) ;
#167 = AXIS2_PLACEMENT_3D ( 'NONE', #151, #116, #168 ) ;
#168 = DIRECTION ( 'NONE',  ( 1.000000000000000000, 0.0000000000000000000, -3.491481338843133355E-15 ) ) ;
#169 = DIRECTION ( 'NONE',  ( 4.275831445896958607E-31, 1.000000000000000000, 1.224646799147353207E-16 ) ) ;
#170 = AXIS2_PLACEMENT_3D ( 'NONE', #178, #232, #175 ) ;
#171 = CC_DESIGN_PERSON_AND_ORGANIZATION_ASSIGNMENT ( #238, #110, ( #113 ) ) ;
#172 = FACE_OUTER_BOUND ( 'NONE', #155, .T. ) ;
#173 = DIRECTION ( 'NONE',  ( 1.000000000000000000, 0.0000000000000000000, -3.491481338843133355E-15 ) ) ;
#174 = AXIS2_PLACEMENT_3D ( 'NONE', #157, #199, #24 ) ;
#175 = DIRECTION ( 'NONE',  ( -4.275831445896958607E-31, -1.000000000000000000, -1.224646799147353207E-16 ) ) ;
#176 = CARTESIAN_POINT ( 'NONE',  ( 1.326762908760390423E-13, 8.998558695971069014E-33, 38.00000000000000000 ) ) ;
#177 = EDGE_LOOP ( 'NONE', ( #122 ) ) ;
#178 = CARTESIAN_POINT ( 'NONE',  ( 4.364351673553915905E-15, -1.807003620809179069E-16, 1.249999999999999778 ) ) ;
#179 = CARTESIAN_POINT ( 'NONE',  ( 4.364351673553913539E-15, 0.0000000000000000000, 1.249999999999999112 ) ) ;
#180 = APPROVAL_PERSON_ORGANIZATION ( #50, #128, #67 ) ;
#181 = DATE_TIME_ROLE ( 'creation_date' ) ;
#182 = AXIS2_PLACEMENT_3D ( 'NONE', #78, #135, #215 ) ;
#183 = APPROVAL ( #51, 'UNSPECIFIED' ) ;
#184 = COORDINATED_UNIVERSAL_TIME_OFFSET ( 1, 0, .AHEAD. ) ;
#185 = CARTESIAN_POINT ( 'NONE',  ( 0.6250000000000001110, 0.0000000000000000000, -2.182175836776958741E-15 ) ) ;
#186 = DESIGN_CONTEXT ( 'detailed design', #1, 'design' ) ;
#187 = LOCAL_TIME ( 7, 36, 32.00000000000000000, #104 ) ;
#188 = PLANE ( 'NONE',  #28 ) ;
#189 = MANIFOLD_SOLID_BREP ( 'Corps-Déplacer/Copier1[2]', #94 ) ;
#190 = LOCAL_TIME ( 7, 36, 32.00000000000000000, #150 ) ;
#191 = CC_DESIGN_DATE_AND_TIME_ASSIGNMENT ( #30, #181, ( #26 ) ) ;
#192 = PLANE ( 'NONE',  #141 ) ;
#193 = PLANE ( 'NONE',  #61 ) ;
#194 = EDGE_LOOP ( 'NONE', ( #121 ) ) ;
#195 = CARTESIAN_POINT ( 'NONE',  ( 4.364351673553915905E-15, -1.807003620809179069E-16, 1.249999999999999778 ) ) ;
#196 = MANIFOLD_SOLID_BREP ( 'Corps-Déplacer/Copier1[1]', #108 ) ;
#197 = AXIS2_PLACEMENT_3D ( 'NONE', #40, #2, #212 ) ;
#198 = EDGE_LOOP ( 'NONE', ( #102 ) ) ;
#199 = DIRECTION ( 'NONE',  ( -3.491481338843133355E-15, 1.224646799147353207E-16, -1.000000000000000000 ) ) ;
#200 = CC_DESIGN_PERSON_AND_ORGANIZATION_ASSIGNMENT ( #32, #127, ( #80 ) ) ;
#201 = LOCAL_TIME ( 7, 36, 32.00000000000000000, #184 ) ;
#202 = APPROVAL_STATUS ( 'not_yet_approved' ) ;
#203 = CALENDAR_DATE ( 2021, 10, 11 ) ;
#204 = COORDINATED_UNIVERSAL_TIME_OFFSET ( 1, 0, .AHEAD. ) ;
#205 = AXIS2_PLACEMENT_3D ( 'NONE', #101, #143, #48 ) ;
#206 = CYLINDRICAL_SURFACE ( 'NONE', #119, 0.6249999999999998890 ) ;
#207 = ADVANCED_FACE ( 'NONE', ( #112, #241 ), #66, .F. ) ;
#208 = DIRECTION ( 'NONE',  ( -3.491481338843133355E-15, 1.224646799147353207E-16, -1.000000000000000000 ) ) ;
#209 = CARTESIAN_POINT ( 'NONE',  ( 0.6931483474218659291, 0.0000000000000000000, 1.767638090205025714 ) ) ;
#210 = EDGE_LOOP ( 'NONE', ( #82 ) ) ;
#211 = DIRECTION ( 'NONE',  ( -3.491481338843133355E-15, 1.224646799147353207E-16, -1.000000000000000000 ) ) ;
#212 = DIRECTION ( 'NONE',  ( 0.0000000000000000000, 1.000000000000000000, 0.0000000000000000000 ) ) ;
#213 = EDGE_LOOP ( 'NONE', ( #118 ) ) ;
#214 = CIRCLE ( 'NONE', #105, 0.6249999999999996669 ) ;
#215 = DIRECTION ( 'NONE',  ( 1.000000000000000000, 0.0000000000000000000, -3.441175021681782570E-15 ) ) ;
#216 = FACE_BOUND ( 'NONE', #44, .T. ) ;
#217 = ADVANCED_FACE ( 'NONE', ( #222 ), #188, .F. ) ;
#218 = DATE_AND_TIME ( #54, #227 ) ;
#219 = PERSON_AND_ORGANIZATION ( #57, #240 ) ;
#220 = APPROVAL_PERSON_ORGANIZATION ( #147, #166, #33 ) ;
#221 = COORDINATED_UNIVERSAL_TIME_OFFSET ( 1, 0, .AHEAD. ) ;
#222 = FACE_OUTER_BOUND ( 'NONE', #123, .T. ) ;
#223 = PRODUCT_DEFINITION_SHAPE ( 'NONE', 'NONE',  #26 ) ;
#224 = CARTESIAN_POINT ( 'NONE',  ( 1.316288464743861212E-13, 1.499999999999994005, 37.69999999999999574 ) ) ;
#225 = EDGE_CURVE ( 'NONE', #18, #18, #149, .T. ) ;
#226 = DIRECTION ( 'NONE',  ( 3.491481338843133355E-15, -1.224646799147353207E-16, 1.000000000000000000 ) ) ;
#227 = LOCAL_TIME ( 7, 36, 32.00000000000000000, #221 ) ;
#228 = ORIENTED_EDGE ( 'NONE', *, *, #59, .F. ) ;
#229 = FACE_OUTER_BOUND ( 'NONE', #234, .T. ) ;
#230 = VERTEX_POINT ( 'NONE', #21 ) ;
#231 = FACE_OUTER_BOUND ( 'NONE', #177, .T. ) ;
#232 = DIRECTION ( 'NONE',  ( 3.491481338843133355E-15, -1.224646799147353207E-16, 1.000000000000000000 ) ) ;
#233 = ADVANCED_FACE ( 'NONE', ( #55 ), #193, .F. ) ;
#234 = EDGE_LOOP ( 'NONE', ( #63 ) ) ;
#235 = AXIS2_PLACEMENT_3D ( 'NONE', #120, #100, #83 ) ;
#236 = CALENDAR_DATE ( 2021, 10, 11 ) ;
#237 = SECURITY_CLASSIFICATION_LEVEL ( 'unclassified' ) ;
#238 = PERSON_AND_ORGANIZATION ( #57, #240 ) ;
#239 = DATE_AND_TIME ( #236, #201 ) ;
#240 = ORGANIZATION ( 'UNSPECIFIED', 'UNSPECIFIED', '' ) ;
#241 = FACE_OUTER_BOUND ( 'NONE', #194, .T. ) ;
#242 = VERTEX_POINT ( 'NONE', #156 ) ;
#243 = CIRCLE ( 'NONE', #205, 1.499999999999996225 ) ;
ENDSEC;
END-ISO-10303-21;
