ISO-10303-21;
HEADER;
FILE_DESCRIPTION (( 'STEP AP203' ),
    '1' );
FILE_NAME ('63805.step',
    '2021-11-10T06:36:31',
    ( '' ),
    ( '' ),
    'SwSTEP 2.0',
    'SolidWorks 2019',
    '' );
FILE_SCHEMA (( 'CONFIG_CONTROL_DESIGN' ));
ENDSEC;

DATA;
#1 = EDGE_CURVE ( 'NONE', #99, #99, #236, .T. ) ;
#2 = DIRECTION ( 'NONE',  ( -3.491481338843133355E-15, 1.224646799147353207E-16, -1.000000000000000000 ) ) ;
#3 = AXIS2_PLACEMENT_3D ( 'NONE', #54, #166, #32 ) ;
#4 = FACE_BOUND ( 'NONE', #6, .T. ) ;
#5 = MANIFOLD_SOLID_BREP ( 'Corps-Déplacer/Copier1[1]', #91 ) ;
#6 = EDGE_LOOP ( 'NONE', ( #7 ) ) ;
#7 = ORIENTED_EDGE ( 'NONE', *, *, #130, .T. ) ;
#8 = CARTESIAN_POINT ( 'NONE',  ( 4.015203539669600992E-15, 0.0000000000000000000, 1.149999999999999245 ) ) ;
#9 = CC_DESIGN_PERSON_AND_ORGANIZATION_ASSIGNMENT ( #79, #58, ( #206 ) ) ;
#10 = AXIS2_PLACEMENT_3D ( 'NONE', #145, #158, #210 ) ;
#11 = CARTESIAN_POINT ( 'NONE',  ( 0.5749999999999999556, 0.0000000000000000000, -2.007601769834801679E-15 ) ) ;
#12 = ORIENTED_EDGE ( 'NONE', *, *, #44, .T. ) ;
#13 = ORGANIZATION ( 'UNSPECIFIED', 'UNSPECIFIED', '' ) ;
#14 = VERTEX_POINT ( 'NONE', #174 ) ;
#15 = AXIS2_PLACEMENT_3D ( 'NONE', #8, #89, #66 ) ;
#16 =( LENGTH_UNIT ( ) NAMED_UNIT ( * ) SI_UNIT ( .MILLI., .METRE. ) );
#17 = DIRECTION ( 'NONE',  ( 3.491481338843133355E-15, -0.0000000000000000000, 1.000000000000000000 ) ) ;
#18 = AXIS2_PLACEMENT_3D ( 'NONE', #84, #155, #217 ) ;
#19 = PERSON_AND_ORGANIZATION ( #184, #13 ) ;
#20 = CALENDAR_DATE ( 2021, 10, 11 ) ;
#21 = APPLICATION_CONTEXT ( 'configuration controlled 3d designs of mechanical parts and assemblies' ) ;
#22 = PLANE ( 'NONE',  #42 ) ;
#23 = CALENDAR_DATE ( 2021, 10, 11 ) ;
#24 = APPROVAL ( #221, 'UNSPECIFIED' ) ;
#25 = CIRCLE ( 'NONE', #122, 1.199999999999998845 ) ;
#26 = ADVANCED_FACE ( 'NONE', ( #86 ), #88, .F. ) ;
#27 = FACE_OUTER_BOUND ( 'NONE', #187, .T. ) ;
#28 = EDGE_LOOP ( 'NONE', ( #194 ) ) ;
#29 = AXIS2_PLACEMENT_3D ( 'NONE', #70, #111, #172 ) ;
#30 = ORIENTED_EDGE ( 'NONE', *, *, #204, .T. ) ;
#31 = CC_DESIGN_APPROVAL ( #93, ( #188 ) ) ;
#32 = DIRECTION ( 'NONE',  ( 1.000000000000000000, 0.0000000000000000000, -3.469446951953622866E-15 ) ) ;
#33 = APPROVAL_STATUS ( 'not_yet_approved' ) ;
#34 = VERTEX_POINT ( 'NONE', #179 ) ;
#35 = ADVANCED_FACE ( 'NONE', ( #43 ), #47, .F. ) ;
#36 = LOCAL_TIME ( 7, 36, 31.00000000000000000, #119 ) ;
#37 = CARTESIAN_POINT ( 'NONE',  ( 1.316288464743861212E-13, 1.499999999999994005, 37.69999999999999574 ) ) ;
#38 = DATE_TIME_ROLE ( 'creation_date' ) ;
#39 = PERSON_AND_ORGANIZATION_ROLE ( 'creator' ) ;
#40 = APPROVAL_DATE_TIME ( #169, #101 ) ;
#41 = LOCAL_TIME ( 7, 36, 31.00000000000000000, #180 ) ;
#42 = AXIS2_PLACEMENT_3D ( 'NONE', #142, #61, #200 ) ;
#43 = FACE_OUTER_BOUND ( 'NONE', #229, .T. ) ;
#44 = EDGE_CURVE ( 'NONE', #34, #34, #132, .T. ) ;
#45 = AXIS2_PLACEMENT_3D ( 'NONE', #208, #85, #107 ) ;
#46 = EDGE_LOOP ( 'NONE', ( #146 ) ) ;
#47 = PLANE ( 'NONE',  #100 ) ;
#48 = CC_DESIGN_PERSON_AND_ORGANIZATION_ASSIGNMENT ( #19, #240, ( #224 ) ) ;
#49 = DIRECTION ( 'NONE',  ( 3.491481338843133355E-15, -0.0000000000000000000, 1.000000000000000000 ) ) ;
#50 = APPROVAL_PERSON_ORGANIZATION ( #205, #24, #137 ) ;
#51 = PERSON_AND_ORGANIZATION ( #184, #13 ) ;
#52 = ADVANCED_FACE ( 'NONE', ( #27, #4 ), #178, .T. ) ;
#53 = AXIS2_PLACEMENT_3D ( 'NONE', #186, #59, #138 ) ;
#54 = CARTESIAN_POINT ( 'NONE',  ( 1.698763483571991073E-14, 0.0000000000000000000, 4.865451992176074825 ) ) ;
#55 = FACE_OUTER_BOUND ( 'NONE', #28, .T. ) ;
#56 =( NAMED_UNIT ( * ) SI_UNIT ( $, .STERADIAN. ) SOLID_ANGLE_UNIT ( ) );
#57 = CARTESIAN_POINT ( 'NONE',  ( 4.015203539669601781E-15, 0.0000000000000000000, 1.149999999999999467 ) ) ;
#58 = PERSON_AND_ORGANIZATION_ROLE ( 'design_supplier' ) ;
#59 = DIRECTION ( 'NONE',  ( 3.491481338843133355E-15, -0.0000000000000000000, 1.000000000000000000 ) ) ;
#60 = ADVANCED_FACE ( 'NONE', ( #55, #196 ), #163, .F. ) ;
#61 = DIRECTION ( 'NONE',  ( -3.491481338843133355E-15, 1.224646799147353207E-16, -1.000000000000000000 ) ) ;
#62 = LOCAL_TIME ( 7, 36, 31.00000000000000000, #81 ) ;
#63 = PERSON_AND_ORGANIZATION ( #184, #13 ) ;
#64 = CC_DESIGN_DATE_AND_TIME_ASSIGNMENT ( #219, #139, ( #224 ) ) ;
#65 = CALENDAR_DATE ( 2021, 10, 11 ) ;
#66 = DIRECTION ( 'NONE',  ( 1.000000000000000000, 0.0000000000000000000, -3.394024192128535962E-15 ) ) ;
#67 = DIRECTION ( 'NONE',  ( 0.0000000000000000000, 1.000000000000000000, 0.0000000000000000000 ) ) ;
#68 = ORIENTED_EDGE ( 'NONE', *, *, #140, .T. ) ;
#69 = APPROVAL_PERSON_ORGANIZATION ( #51, #93, #110 ) ;
#70 = CARTESIAN_POINT ( 'NONE',  ( 5.822527271894858162E-15, 0.0000000000000000000, 1.667638090205028290 ) ) ;
#71 = EDGE_CURVE ( 'NONE', #109, #109, #136, .T. ) ;
#72 = DIRECTION ( 'NONE',  ( -3.491481338843133355E-15, 1.224646799147353207E-16, -1.000000000000000000 ) ) ;
#73 = PERSON_AND_ORGANIZATION_ROLE ( 'design_owner' ) ;
#74 = COORDINATED_UNIVERSAL_TIME_OFFSET ( 1, 0, .AHEAD. ) ;
#75 = EDGE_LOOP ( 'NONE', ( #126 ) ) ;
#76 = CARTESIAN_POINT ( 'NONE',  ( 4.015203539669603359E-15, -1.662443331144444734E-16, 1.149999999999999911 ) ) ;
#77 = MECHANICAL_CONTEXT ( 'NONE', #21, 'mechanical' ) ;
#78 = AXIS2_PLACEMENT_3D ( 'NONE', #161, #72, #90 ) ;
#79 = PERSON_AND_ORGANIZATION ( #184, #13 ) ;
#80 = PERSON_AND_ORGANIZATION ( #184, #13 ) ;
#81 = COORDINATED_UNIVERSAL_TIME_OFFSET ( 1, 0, .AHEAD. ) ;
#82 = CC_DESIGN_PERSON_AND_ORGANIZATION_ASSIGNMENT ( #143, #120, ( #206 ) ) ;
#83 = CIRCLE ( 'NONE', #45, 0.5749999999999999556 ) ;
#84 = CARTESIAN_POINT ( 'NONE',  ( 1.326762908760390423E-13, -4.653657836759941941E-15, 38.00000000000000000 ) ) ;
#85 = DIRECTION ( 'NONE',  ( 3.491481338843133355E-15, -0.0000000000000000000, 1.000000000000000000 ) ) ;
#86 = FACE_OUTER_BOUND ( 'NONE', #106, .T. ) ;
#87 = CC_DESIGN_SECURITY_CLASSIFICATION ( #224, ( #206 ) ) ;
#88 = PLANE ( 'NONE',  #10 ) ;
#89 = DIRECTION ( 'NONE',  ( 3.491481338843133355E-15, -0.0000000000000000000, 1.000000000000000000 ) ) ;
#90 = DIRECTION ( 'NONE',  ( 4.275831445896958607E-31, 1.000000000000000000, 1.224646799147352961E-16 ) ) ;
#91 = CLOSED_SHELL ( 'NONE', ( #181, #52, #127, #60, #164, #35 ) ) ;
#92 = MANIFOLD_SOLID_BREP ( 'Corps-Déplacer/Copier1[2]', #220 ) ;
#93 = APPROVAL ( #33, 'UNSPECIFIED' ) ;
#94 = FACE_BOUND ( 'NONE', #95, .T. ) ;
#95 = EDGE_LOOP ( 'NONE', ( #160 ) ) ;
#96 = CARTESIAN_POINT ( 'NONE',  ( -1.786038389295302186E-30, 0.0000000000000000000, -5.115417256925931626E-16 ) ) ;
#97 =( NAMED_UNIT ( * ) PLANE_ANGLE_UNIT ( ) SI_UNIT ( $, .RADIAN. ) );
#98 = DIRECTION ( 'NONE',  ( 0.0000000000000000000, 0.0000000000000000000, 1.000000000000000000 ) ) ;
#99 = VERTEX_POINT ( 'NONE', #218 ) ;
#100 = AXIS2_PLACEMENT_3D ( 'NONE', #189, #125, #227 ) ;
#101 = APPROVAL ( #243, 'UNSPECIFIED' ) ;
#102 = SHAPE_DEFINITION_REPRESENTATION ( #156, #144 ) ;
#103 = LOCAL_TIME ( 7, 36, 31.00000000000000000, #123 ) ;
#104 = CARTESIAN_POINT ( 'NONE',  ( 1.326762908760390423E-13, -4.653657836759941941E-15, 38.00000000000000000 ) ) ;
#105 = AXIS2_PLACEMENT_3D ( 'NONE', #96, #17, #237 ) ;
#106 = EDGE_LOOP ( 'NONE', ( #170 ) ) ;
#107 = DIRECTION ( 'NONE',  ( 1.000000000000000000, 0.0000000000000000000, -3.491481338843133750E-15 ) ) ;
#108 = CC_DESIGN_APPROVAL ( #101, ( #206 ) ) ;
#109 = VERTEX_POINT ( 'NONE', #233 ) ;
#110 = APPROVAL_ROLE ( '' ) ;
#111 = DIRECTION ( 'NONE',  ( 3.491481338843133355E-15, -0.0000000000000000000, 1.000000000000000000 ) ) ;
#112 = VERTEX_POINT ( 'NONE', #37 ) ;
#113 = AXIS2_PLACEMENT_3D ( 'NONE', #151, #98, #175 ) ;
#114 = ORIENTED_EDGE ( 'NONE', *, *, #71, .F. ) ;
#115 = APPLICATION_PROTOCOL_DEFINITION ( 'international standard', 'config_control_design', 1994, #21 ) ;
#116 = EDGE_CURVE ( 'NONE', #112, #112, #211, .T. ) ;
#117 = AXIS2_PLACEMENT_3D ( 'NONE', #235, #216, #67 ) ;
#118 = CALENDAR_DATE ( 2021, 10, 11 ) ;
#119 = COORDINATED_UNIVERSAL_TIME_OFFSET ( 1, 0, .AHEAD. ) ;
#120 = PERSON_AND_ORGANIZATION_ROLE ( 'creator' ) ;
#121 = FACE_OUTER_BOUND ( 'NONE', #176, .T. ) ;
#122 = AXIS2_PLACEMENT_3D ( 'NONE', #104, #2, #225 ) ;
#123 = COORDINATED_UNIVERSAL_TIME_OFFSET ( 1, 0, .AHEAD. ) ;
#124 = ORIENTED_EDGE ( 'NONE', *, *, #130, .F. ) ;
#125 = DIRECTION ( 'NONE',  ( 3.491481338843133355E-15, -1.224646799147353207E-16, 1.000000000000000000 ) ) ;
#126 = ORIENTED_EDGE ( 'NONE', *, *, #44, .F. ) ;
#127 = ADVANCED_FACE ( 'NONE', ( #183 ), #22, .F. ) ;
#128 = AXIS2_PLACEMENT_3D ( 'NONE', #129, #49, #231 ) ;
#129 = CARTESIAN_POINT ( 'NONE',  ( 1.698763483571991073E-14, 0.0000000000000000000, 4.865451992176074825 ) ) ;
#130 = EDGE_CURVE ( 'NONE', #134, #134, #25, .T. ) ;
#131 = FACE_OUTER_BOUND ( 'NONE', #209, .T. ) ;
#132 = CIRCLE ( 'NONE', #53, 0.5749999999999999556 ) ;
#133 = EDGE_LOOP ( 'NONE', ( #12 ) ) ;
#134 = VERTEX_POINT ( 'NONE', #212 ) ;
#135 = FACE_OUTER_BOUND ( 'NONE', #133, .T. ) ;
#136 = CIRCLE ( 'NONE', #15, 0.5749999999999999556 ) ;
#137 = APPROVAL_ROLE ( '' ) ;
#138 = DIRECTION ( 'NONE',  ( 1.000000000000000000, 0.0000000000000000000, -3.394024192128535962E-15 ) ) ;
#139 = DATE_TIME_ROLE ( 'classification_date' ) ;
#140 = EDGE_CURVE ( 'NONE', #177, #177, #83, .T. ) ;
#141 = CIRCLE ( 'NONE', #128, 1.499999999999996225 ) ;
#142 = CARTESIAN_POINT ( 'NONE',  ( 1.326762908760390423E-13, 8.998558695971069014E-33, 38.00000000000000000 ) ) ;
#143 = PERSON_AND_ORGANIZATION ( #184, #13 ) ;
#144 = ADVANCED_BREP_SHAPE_REPRESENTATION ( '63805', ( #5, #92, #113 ), #195 ) ;
#145 = CARTESIAN_POINT ( 'NONE',  ( -6.413803915257457113E-31, 2.249659577954772199E-32, -1.836986451539393076E-16 ) ) ;
#146 = ORIENTED_EDGE ( 'NONE', *, *, #1, .F. ) ;
#147 = DIRECTION ( 'NONE',  ( 3.491481338843133355E-15, -1.224646799147353207E-16, 1.000000000000000000 ) ) ;
#148 = ORIENTED_EDGE ( 'NONE', *, *, #116, .F. ) ;
#149 = APPLICATION_PROTOCOL_DEFINITION ( 'international standard', 'config_control_design', 1994, #228 ) ;
#150 = ORIENTED_EDGE ( 'NONE', *, *, #204, .F. ) ;
#151 = CARTESIAN_POINT ( 'NONE',  ( 0.0000000000000000000, 0.0000000000000000000, 0.0000000000000000000 ) ) ;
#152 = ADVANCED_FACE ( 'NONE', ( #121, #182 ), #203, .T. ) ;
#153 = PLANE ( 'NONE',  #162 ) ;
#154 = SECURITY_CLASSIFICATION_LEVEL ( 'unclassified' ) ;
#155 = DIRECTION ( 'NONE',  ( -3.491481338843133355E-15, 1.224646799147353207E-16, -1.000000000000000000 ) ) ;
#156 = PRODUCT_DEFINITION_SHAPE ( 'NONE', 'NONE',  #188 ) ;
#157 = EDGE_LOOP ( 'NONE', ( #214 ) ) ;
#158 = DIRECTION ( 'NONE',  ( 3.491481338843133355E-15, -1.224646799147353207E-16, 1.000000000000000000 ) ) ;
#159 = EDGE_LOOP ( 'NONE', ( #150 ) ) ;
#160 = ORIENTED_EDGE ( 'NONE', *, *, #1, .T. ) ;
#161 = CARTESIAN_POINT ( 'NONE',  ( 0.0000000000000000000, 0.0000000000000000000, 0.0000000000000000000 ) ) ;
#162 = AXIS2_PLACEMENT_3D ( 'NONE', #76, #147, #198 ) ;
#163 = TOROIDAL_SURFACE ( 'NONE', #197, 2.575000000000000178, 2.000000000000000000 ) ;
#164 = ADVANCED_FACE ( 'NONE', ( #94, #234 ), #238, .T. ) ;
#165 = CYLINDRICAL_SURFACE ( 'NONE', #78, 1.499999999999996447 ) ;
#166 = DIRECTION ( 'NONE',  ( 3.491481338843133355E-15, -0.0000000000000000000, 1.000000000000000000 ) ) ;
#167 = APPROVAL_ROLE ( '' ) ;
#168 = APPROVAL_DATE_TIME ( #199, #24 ) ;
#169 = DATE_AND_TIME ( #65, #36 ) ;
#170 = ORIENTED_EDGE ( 'NONE', *, *, #140, .F. ) ;
#171 = EDGE_LOOP ( 'NONE', ( #124 ) ) ;
#172 = DIRECTION ( 'NONE',  ( 1.000000000000000000, 0.0000000000000000000, -3.371546166080231443E-15 ) ) ;
#173 = UNCERTAINTY_MEASURE_WITH_UNIT (LENGTH_MEASURE( 1.000000000000000082E-05 ), #16, 'distance_accuracy_value', 'NONE');
#174 = CARTESIAN_POINT ( 'NONE',  ( 1.500000000000013101, 0.0000000000000000000, 4.865451992176069496 ) ) ;
#175 = DIRECTION ( 'NONE',  ( 1.000000000000000000, 0.0000000000000000000, 0.0000000000000000000 ) ) ;
#176 = EDGE_LOOP ( 'NONE', ( #68 ) ) ;
#177 = VERTEX_POINT ( 'NONE', #11 ) ;
#178 = CONICAL_SURFACE ( 'NONE', #18, 1.199999999999998845, 0.7853981633974450594 ) ;
#179 = CARTESIAN_POINT ( 'NONE',  ( 0.5750000000000039524, 0.0000000000000000000, 1.149999999999997469 ) ) ;
#180 = COORDINATED_UNIVERSAL_TIME_OFFSET ( 1, 0, .AHEAD. ) ;
#181 = ADVANCED_FACE ( 'NONE', ( #193, #131 ), #165, .T. ) ;
#182 = FACE_OUTER_BOUND ( 'NONE', #75, .T. ) ;
#183 = FACE_OUTER_BOUND ( 'NONE', #171, .T. ) ;
#184 = PERSON ( 'UNSPECIFIED', 'UNSPECIFIED', 'UNSPECIFIED', ('UNSPECIFIED'), ('UNSPECIFIED'), ('UNSPECIFIED') ) ;
#185 = CALENDAR_DATE ( 2021, 10, 11 ) ;
#186 = CARTESIAN_POINT ( 'NONE',  ( 4.015203539669600992E-15, 0.0000000000000000000, 1.149999999999999245 ) ) ;
#187 = EDGE_LOOP ( 'NONE', ( #148 ) ) ;
#188 = PRODUCT_DEFINITION ( 'UNKNOWN', '', #206, #190 ) ;
#189 = CARTESIAN_POINT ( 'NONE',  ( 4.015203539669603359E-15, -1.662443331144444734E-16, 1.149999999999999911 ) ) ;
#190 = DESIGN_CONTEXT ( 'detailed design', #228, 'design' ) ;
#191 = DIRECTION ( 'NONE',  ( 1.000000000000000000, 0.0000000000000000000, -3.491481338843132961E-15 ) ) ;
#192 = PRODUCT_RELATED_PRODUCT_CATEGORY ( 'detail', '', ( #222 ) ) ;
#193 = FACE_OUTER_BOUND ( 'NONE', #157, .T. ) ;
#194 = ORIENTED_EDGE ( 'NONE', *, *, #71, .T. ) ;
#195 =( GEOMETRIC_REPRESENTATION_CONTEXT ( 3 ) GLOBAL_UNCERTAINTY_ASSIGNED_CONTEXT ( ( #173 ) ) GLOBAL_UNIT_ASSIGNED_CONTEXT ( ( #16, #97, #56 ) ) REPRESENTATION_CONTEXT ( 'NONE', 'WORKASPACE' ) );
#196 = FACE_OUTER_BOUND ( 'NONE', #46, .T. ) ;
#197 = AXIS2_PLACEMENT_3D ( 'NONE', #57, #215, #191 ) ;
#198 = DIRECTION ( 'NONE',  ( -4.275831445896958607E-31, -1.000000000000000000, -1.224646799147353207E-16 ) ) ;
#199 = DATE_AND_TIME ( #118, #41 ) ;
#200 = DIRECTION ( 'NONE',  ( 4.275831445896958607E-31, 1.000000000000000000, 1.224646799147353207E-16 ) ) ;
#201 = DATE_AND_TIME ( #20, #202 ) ;
#202 = LOCAL_TIME ( 7, 36, 31.00000000000000000, #74 ) ;
#203 = CYLINDRICAL_SURFACE ( 'NONE', #105, 0.5749999999999999556 ) ;
#204 = EDGE_CURVE ( 'NONE', #14, #14, #141, .T. ) ;
#205 = PERSON_AND_ORGANIZATION ( #184, #13 ) ;
#206 = PRODUCT_DEFINITION_FORMATION_WITH_SPECIFIED_SOURCE ( 'ANY', '', #222, .NOT_KNOWN. ) ;
#207 = ADVANCED_FACE ( 'NONE', ( #135 ), #153, .T. ) ;
#208 = CARTESIAN_POINT ( 'NONE',  ( 0.0000000000000000000, 0.0000000000000000000, 0.0000000000000000000 ) ) ;
#209 = EDGE_LOOP ( 'NONE', ( #30 ) ) ;
#210 = DIRECTION ( 'NONE',  ( -4.275831445896958607E-31, -1.000000000000000000, -1.224646799147353207E-16 ) ) ;
#211 = CIRCLE ( 'NONE', #117, 1.499999999999998446 ) ;
#212 = CARTESIAN_POINT ( 'NONE',  ( 1.326762908760390423E-13, 1.199999999999994182, 38.00000000000000000 ) ) ;
#213 = PERSON_AND_ORGANIZATION ( #184, #13 ) ;
#214 = ORIENTED_EDGE ( 'NONE', *, *, #116, .T. ) ;
#215 = DIRECTION ( 'NONE',  ( 3.491481338843133355E-15, -0.0000000000000000000, 1.000000000000000000 ) ) ;
#216 = DIRECTION ( 'NONE',  ( -3.491481338843133355E-15, 1.224646799147353207E-16, -1.000000000000000000 ) ) ;
#217 = DIRECTION ( 'NONE',  ( 0.0000000000000000000, 1.000000000000000000, 0.0000000000000000000 ) ) ;
#218 = CARTESIAN_POINT ( 'NONE',  ( 0.6431483474218658847, 0.0000000000000000000, 1.667638090205026069 ) ) ;
#219 = DATE_AND_TIME ( #23, #62 ) ;
#220 = CLOSED_SHELL ( 'NONE', ( #207, #152, #26 ) ) ;
#221 = APPROVAL_STATUS ( 'not_yet_approved' ) ;
#222 = PRODUCT ( '63805', '63805', '', ( #77 ) ) ;
#223 = CC_DESIGN_PERSON_AND_ORGANIZATION_ASSIGNMENT ( #80, #39, ( #188 ) ) ;
#224 = SECURITY_CLASSIFICATION ( '', '', #154 ) ;
#225 = DIRECTION ( 'NONE',  ( 0.0000000000000000000, 1.000000000000000000, 0.0000000000000000000 ) ) ;
#226 = CC_DESIGN_PERSON_AND_ORGANIZATION_ASSIGNMENT ( #213, #73, ( #222 ) ) ;
#227 = DIRECTION ( 'NONE',  ( -4.275831445896958607E-31, -1.000000000000000000, -1.224646799147353207E-16 ) ) ;
#228 = APPLICATION_CONTEXT ( 'configuration controlled 3d designs of mechanical parts and assemblies' ) ;
#229 = EDGE_LOOP ( 'NONE', ( #114 ) ) ;
#230 = CC_DESIGN_APPROVAL ( #24, ( #224 ) ) ;
#231 = DIRECTION ( 'NONE',  ( 1.000000000000000000, 0.0000000000000000000, -3.469446951953622866E-15 ) ) ;
#232 = APPROVAL_PERSON_ORGANIZATION ( #63, #101, #167 ) ;
#233 = CARTESIAN_POINT ( 'NONE',  ( 0.5750000000000039524, 0.0000000000000000000, 1.149999999999997469 ) ) ;
#234 = FACE_OUTER_BOUND ( 'NONE', #159, .T. ) ;
#235 = CARTESIAN_POINT ( 'NONE',  ( 1.316288464743861212E-13, -4.616918432785521081E-15, 37.69999999999999574 ) ) ;
#236 = CIRCLE ( 'NONE', #29, 0.6431483474218600005 ) ;
#237 = DIRECTION ( 'NONE',  ( 1.000000000000000000, 0.0000000000000000000, -3.491481338843133750E-15 ) ) ;
#238 = CONICAL_SURFACE ( 'NONE', #3, 1.499999999999996225, 0.2617993877991426910 ) ;
#239 = APPROVAL_DATE_TIME ( #201, #93 ) ;
#240 = PERSON_AND_ORGANIZATION_ROLE ( 'classification_officer' ) ;
#241 = CC_DESIGN_DATE_AND_TIME_ASSIGNMENT ( #242, #38, ( #188 ) ) ;
#242 = DATE_AND_TIME ( #185, #103 ) ;
#243 = APPROVAL_STATUS ( 'not_yet_approved' ) ;
ENDSEC;
END-ISO-10303-21;
