ISO-10303-21;
HEADER;
FILE_DESCRIPTION (( 'STEP AP203' ),
    '1' );
FILE_NAME ('638.step',
    '2021-12-06T13:00:02',
    ( '' ),
    ( '' ),
    'SwSTEP 2.0',
    'SolidWorks 2019',
    '' );
FILE_SCHEMA (( 'CONFIG_CONTROL_DESIGN' ));
ENDSEC;

DATA;
#1 = EDGE_LOOP ( 'NONE', ( #40 ) ) ;
#2 = CARTESIAN_POINT ( 'NONE',  ( 1.047444401652977083E-15, 2.132444451476858335E-16, 0.3000000000000105915 ) ) ;
#3 = EDGE_CURVE ( 'NONE', #144, #144, #105, .T. ) ;
#4 = ORIENTED_EDGE ( 'NONE', *, *, #3, .T. ) ;
#5 = CARTESIAN_POINT ( 'NONE',  ( 0.0000000000000000000, 0.0000000000000000000, 0.0000000000000000000 ) ) ;
#6 = VERTEX_POINT ( 'NONE', #61 ) ;
#7 = PERSON_AND_ORGANIZATION_ROLE ( 'design_owner' ) ;
#8 = APPROVAL_ROLE ( '' ) ;
#9 = CALENDAR_DATE ( 2021, 6, 12 ) ;
#10 =( GEOMETRIC_REPRESENTATION_CONTEXT ( 3 ) GLOBAL_UNCERTAINTY_ASSIGNED_CONTEXT ( ( #120 ) ) GLOBAL_UNIT_ASSIGNED_CONTEXT ( ( #59, #83, #161 ) ) REPRESENTATION_CONTEXT ( 'NONE', 'WORKASPACE' ) );
#11 = APPROVAL ( #51, 'UNSPECIFIED' ) ;
#12 = PERSON_AND_ORGANIZATION ( #66, #136 ) ;
#13 = CARTESIAN_POINT ( 'NONE',  ( 9.927186677934358484E-30, 2.021030817170719113E-30, 2.843259268635710533E-15 ) ) ;
#14 = APPROVAL ( #73, 'UNSPECIFIED' ) ;
#15 = AXIS2_PLACEMENT_3D ( 'NONE', #2, #132, #57 ) ;
#16 = PERSON_AND_ORGANIZATION ( #66, #136 ) ;
#17 = CLOSED_SHELL ( 'NONE', ( #70, #90, #78, #141 ) ) ;
#18 = ORIENTED_EDGE ( 'NONE', *, *, #45, .T. ) ;
#19 = CYLINDRICAL_SURFACE ( 'NONE', #156, 15.00000000000000000 ) ;
#20 = PLANE ( 'NONE',  #44 ) ;
#21 = DIRECTION ( 'NONE',  ( 1.000000000000000000, 0.0000000000000000000, 0.0000000000000000000 ) ) ;
#22 = DIRECTION ( 'NONE',  ( -2.481796669483589621E-30, 1.000000000000000000, -7.108148171589276333E-16 ) ) ;
#23 = APPROVAL_DATE_TIME ( #62, #14 ) ;
#24 = APPROVAL_DATE_TIME ( #86, #11 ) ;
#25 = CC_DESIGN_PERSON_AND_ORGANIZATION_ASSIGNMENT ( #74, #163, ( #87 ) ) ;
#26 = PERSON_AND_ORGANIZATION ( #66, #136 ) ;
#27 = CC_DESIGN_PERSON_AND_ORGANIZATION_ASSIGNMENT ( #16, #7, ( #111 ) ) ;
#28 = DIRECTION ( 'NONE',  ( -3.491481338843133355E-15, -7.108148171589276333E-16, -1.000000000000000000 ) ) ;
#29 = EDGE_LOOP ( 'NONE', ( #4 ) ) ;
#30 = APPLICATION_PROTOCOL_DEFINITION ( 'international standard', 'config_control_design', 1994, #76 ) ;
#31 = FACE_OUTER_BOUND ( 'NONE', #56, .T. ) ;
#32 = CC_DESIGN_PERSON_AND_ORGANIZATION_ASSIGNMENT ( #150, #151, ( #169 ) ) ;
#33 = CARTESIAN_POINT ( 'NONE',  ( 0.0000000000000000000, 4.000000000000000000, 0.0000000000000000000 ) ) ;
#34 = CARTESIAN_POINT ( 'NONE',  ( 0.0000000000000000000, 0.0000000000000000000, 0.0000000000000000000 ) ) ;
#35 = AXIS2_PLACEMENT_3D ( 'NONE', #47, #103, #130 ) ;
#36 = DATE_AND_TIME ( #96, #168 ) ;
#37 = AXIS2_PLACEMENT_3D ( 'NONE', #13, #166, #22 ) ;
#38 = PERSON_AND_ORGANIZATION_ROLE ( 'classification_officer' ) ;
#39 = DIRECTION ( 'NONE',  ( -2.481796669483589621E-30, 1.000000000000000000, -7.108148171589276333E-16 ) ) ;
#40 = ORIENTED_EDGE ( 'NONE', *, *, #3, .F. ) ;
#41 = DIRECTION ( 'NONE',  ( -2.503708927703406609E-30, 1.000000000000000000, -7.047314121155778821E-16 ) ) ;
#42 = EDGE_LOOP ( 'NONE', ( #93 ) ) ;
#43 = PLANE ( 'NONE',  #35 ) ;
#44 = AXIS2_PLACEMENT_3D ( 'NONE', #92, #69, #147 ) ;
#45 = EDGE_CURVE ( 'NONE', #129, #129, #127, .T. ) ;
#46 = DIRECTION ( 'NONE',  ( -3.491481338843133355E-15, -7.108148171589276333E-16, -1.000000000000000000 ) ) ;
#47 = CARTESIAN_POINT ( 'NONE',  ( 1.047444401652953417E-15, 4.000000000000000000, 0.3000000000000038192 ) ) ;
#48 = DIRECTION ( 'NONE',  ( -2.481796669483589621E-30, 1.000000000000000000, -7.108148171589276333E-16 ) ) ;
#49 = APPROVAL_STATUS ( 'not_yet_approved' ) ;
#50 = LOCAL_TIME ( 14, 0, 2.000000000000000000, #167 ) ;
#51 = APPROVAL_STATUS ( 'not_yet_approved' ) ;
#52 = DATE_TIME_ROLE ( 'creation_date' ) ;
#53 = COORDINATED_UNIVERSAL_TIME_OFFSET ( 1, 0, .AHEAD. ) ;
#54 = LOCAL_TIME ( 14, 0, 2.000000000000000000, #108 ) ;
#55 = CC_DESIGN_APPROVAL ( #84, ( #169 ) ) ;
#56 = EDGE_LOOP ( 'NONE', ( #142 ) ) ;
#57 = DIRECTION ( 'NONE',  ( -2.478029861778243347E-30, 1.000000000000000000, -7.119594265988146112E-16 ) ) ;
#58 = ORIENTED_EDGE ( 'NONE', *, *, #45, .F. ) ;
#59 =( LENGTH_UNIT ( ) NAMED_UNIT ( * ) SI_UNIT ( .MILLI., .METRE. ) );
#60 = FACE_BOUND ( 'NONE', #1, .T. ) ;
#61 = CARTESIAN_POINT ( 'NONE',  ( 1.047444401652939809E-15, 15.00000000000000000, 0.2999999999999999334 ) ) ;
#62 = DATE_AND_TIME ( #123, #50 ) ;
#63 = CALENDAR_DATE ( 2021, 6, 12 ) ;
#64 = DIRECTION ( 'NONE',  ( -3.491481338843133355E-15, -7.108148171589276333E-16, -1.000000000000000000 ) ) ;
#65 = AXIS2_PLACEMENT_3D ( 'NONE', #95, #28, #41 ) ;
#66 = PERSON ( 'UNSPECIFIED', 'UNSPECIFIED', 'UNSPECIFIED', ('UNSPECIFIED'), ('UNSPECIFIED'), ('UNSPECIFIED') ) ;
#67 = DIRECTION ( 'NONE',  ( -2.481796669483589621E-30, 1.000000000000000000, -7.108148171589276333E-16 ) ) ;
#68 = EDGE_LOOP ( 'NONE', ( #18 ) ) ;
#69 = DIRECTION ( 'NONE',  ( -3.491481338843133355E-15, -7.108148171589276333E-16, -1.000000000000000000 ) ) ;
#70 = ADVANCED_FACE ( 'NONE', ( #155, #60 ), #20, .T. ) ;
#71 = CARTESIAN_POINT ( 'NONE',  ( 0.0000000000000000000, 0.0000000000000000000, 0.0000000000000000000 ) ) ;
#72 = APPROVAL_ROLE ( '' ) ;
#73 = APPROVAL_STATUS ( 'not_yet_approved' ) ;
#74 = PERSON_AND_ORGANIZATION ( #66, #136 ) ;
#75 = SECURITY_CLASSIFICATION ( '', '', #88 ) ;
#76 = APPLICATION_CONTEXT ( 'configuration controlled 3d designs of mechanical parts and assemblies' ) ;
#77 = ORIENTED_EDGE ( 'NONE', *, *, #122, .T. ) ;
#78 = ADVANCED_FACE ( 'NONE', ( #114, #31 ), #43, .T. ) ;
#79 = ORIENTED_EDGE ( 'NONE', *, *, #122, .F. ) ;
#80 = DIRECTION ( 'NONE',  ( -3.491481338843133355E-15, -7.108148171589276333E-16, -1.000000000000000000 ) ) ;
#81 = VERTEX_POINT ( 'NONE', #134 ) ;
#82 = DESIGN_CONTEXT ( 'detailed design', #133, 'design' ) ;
#83 =( NAMED_UNIT ( * ) PLANE_ANGLE_UNIT ( ) SI_UNIT ( $, .RADIAN. ) );
#84 = APPROVAL ( #49, 'UNSPECIFIED' ) ;
#85 = LOCAL_TIME ( 14, 0, 2.000000000000000000, #135 ) ;
#86 = DATE_AND_TIME ( #125, #109 ) ;
#87 = PRODUCT_DEFINITION ( 'UNKNOWN', '', #169, #82 ) ;
#88 = SECURITY_CLASSIFICATION_LEVEL ( 'unclassified' ) ;
#89 = COORDINATED_UNIVERSAL_TIME_OFFSET ( 1, 0, .AHEAD. ) ;
#90 = ADVANCED_FACE ( 'NONE', ( #94, #145 ), #19, .T. ) ;
#91 = AXIS2_PLACEMENT_3D ( 'NONE', #119, #64, #39 ) ;
#92 = CARTESIAN_POINT ( 'NONE',  ( 1.364988168215974327E-29, 4.000000000000000000, 3.909481494374101490E-15 ) ) ;
#93 = ORIENTED_EDGE ( 'NONE', *, *, #112, .T. ) ;
#94 = FACE_OUTER_BOUND ( 'NONE', #42, .T. ) ;
#95 = CARTESIAN_POINT ( 'NONE',  ( 1.047444401652949473E-15, 2.132444451476802375E-16, 0.3000000000000027645 ) ) ;
#96 = CALENDAR_DATE ( 2021, 6, 12 ) ;
#97 = PRODUCT_RELATED_PRODUCT_CATEGORY ( 'detail', '', ( #111 ) ) ;
#98 = APPROVAL_DATE_TIME ( #165, #84 ) ;
#99 = APPROVAL_PERSON_ORGANIZATION ( #149, #11, #152 ) ;
#100 = PERSON_AND_ORGANIZATION ( #66, #136 ) ;
#101 = AXIS2_PLACEMENT_3D ( 'NONE', #71, #159, #21 ) ;
#102 = CC_DESIGN_APPROVAL ( #11, ( #75 ) ) ;
#103 = DIRECTION ( 'NONE',  ( 3.491481338843133355E-15, 7.108148171589276333E-16, 1.000000000000000000 ) ) ;
#104 = EDGE_LOOP ( 'NONE', ( #79 ) ) ;
#105 = CIRCLE ( 'NONE', #37, 4.000000000000000000 ) ;
#106 = CC_DESIGN_APPROVAL ( #14, ( #87 ) ) ;
#107 = APPLICATION_PROTOCOL_DEFINITION ( 'international standard', 'config_control_design', 1994, #133 ) ;
#108 = COORDINATED_UNIVERSAL_TIME_OFFSET ( 1, 0, .AHEAD. ) ;
#109 = LOCAL_TIME ( 14, 0, 2.000000000000000000, #89 ) ;
#110 = DATE_AND_TIME ( #63, #54 ) ;
#111 = PRODUCT ( '638', '638', '', ( #121 ) ) ;
#112 = EDGE_CURVE ( 'NONE', #6, #6, #128, .T. ) ;
#113 = CIRCLE ( 'NONE', #65, 4.000000000000000000 ) ;
#114 = FACE_BOUND ( 'NONE', #116, .T. ) ;
#115 = MANIFOLD_SOLID_BREP ( 'Corps-Déplacer/Copier1', #17 ) ;
#116 = EDGE_LOOP ( 'NONE', ( #77 ) ) ;
#117 = FACE_OUTER_BOUND ( 'NONE', #29, .T. ) ;
#118 = CYLINDRICAL_SURFACE ( 'NONE', #148, 4.000000000000000000 ) ;
#119 = CARTESIAN_POINT ( 'NONE',  ( 3.722695004225384221E-29, 7.578865564390194836E-30, 1.066222225738391430E-14 ) ) ;
#120 = UNCERTAINTY_MEASURE_WITH_UNIT (LENGTH_MEASURE( 1.000000000000000082E-05 ), #59, 'distance_accuracy_value', 'NONE');
#121 = MECHANICAL_CONTEXT ( 'NONE', #76, 'mechanical' ) ;
#122 = EDGE_CURVE ( 'NONE', #81, #81, #113, .T. ) ;
#123 = CALENDAR_DATE ( 2021, 6, 12 ) ;
#124 = PRODUCT_DEFINITION_SHAPE ( 'NONE', 'NONE',  #87 ) ;
#125 = CALENDAR_DATE ( 2021, 6, 12 ) ;
#126 = CC_DESIGN_PERSON_AND_ORGANIZATION_ASSIGNMENT ( #12, #38, ( #75 ) ) ;
#127 = CIRCLE ( 'NONE', #91, 15.00000000000000000 ) ;
#128 = CIRCLE ( 'NONE', #15, 15.00000000000000000 ) ;
#129 = VERTEX_POINT ( 'NONE', #157 ) ;
#130 = DIRECTION ( 'NONE',  ( 2.481796669483589621E-30, -1.000000000000000000, 7.108148171589276333E-16 ) ) ;
#131 = APPROVAL_PERSON_ORGANIZATION ( #162, #14, #8 ) ;
#132 = DIRECTION ( 'NONE',  ( -3.491481338843133355E-15, -7.108148171589276333E-16, -1.000000000000000000 ) ) ;
#133 = APPLICATION_CONTEXT ( 'configuration controlled 3d designs of mechanical parts and assemblies' ) ;
#134 = CARTESIAN_POINT ( 'NONE',  ( 1.047444401652939415E-15, 4.000000000000000000, 0.2999999999999999334 ) ) ;
#135 = COORDINATED_UNIVERSAL_TIME_OFFSET ( 1, 0, .AHEAD. ) ;
#136 = ORGANIZATION ( 'UNSPECIFIED', 'UNSPECIFIED', '' ) ;
#137 = SHAPE_DEFINITION_REPRESENTATION ( #124, #139 ) ;
#138 = CC_DESIGN_SECURITY_CLASSIFICATION ( #75, ( #169 ) ) ;
#139 = ADVANCED_BREP_SHAPE_REPRESENTATION ( '638', ( #115, #101 ), #10 ) ;
#140 = APPROVAL_PERSON_ORGANIZATION ( #100, #84, #72 ) ;
#141 = ADVANCED_FACE ( 'NONE', ( #117, #143 ), #118, .F. ) ;
#142 = ORIENTED_EDGE ( 'NONE', *, *, #112, .F. ) ;
#143 = FACE_OUTER_BOUND ( 'NONE', #104, .T. ) ;
#144 = VERTEX_POINT ( 'NONE', #33 ) ;
#145 = FACE_OUTER_BOUND ( 'NONE', #160, .T. ) ;
#146 = CC_DESIGN_DATE_AND_TIME_ASSIGNMENT ( #110, #164, ( #75 ) ) ;
#147 = DIRECTION ( 'NONE',  ( -2.481796669483589621E-30, 1.000000000000000000, -7.108148171589276333E-16 ) ) ;
#148 = AXIS2_PLACEMENT_3D ( 'NONE', #34, #80, #67 ) ;
#149 = PERSON_AND_ORGANIZATION ( #66, #136 ) ;
#150 = PERSON_AND_ORGANIZATION ( #66, #136 ) ;
#151 = PERSON_AND_ORGANIZATION_ROLE ( 'creator' ) ;
#152 = APPROVAL_ROLE ( '' ) ;
#153 = PERSON_AND_ORGANIZATION_ROLE ( 'design_supplier' ) ;
#154 = CC_DESIGN_PERSON_AND_ORGANIZATION_ASSIGNMENT ( #26, #153, ( #169 ) ) ;
#155 = FACE_OUTER_BOUND ( 'NONE', #68, .T. ) ;
#156 = AXIS2_PLACEMENT_3D ( 'NONE', #5, #46, #48 ) ;
#157 = CARTESIAN_POINT ( 'NONE',  ( 0.0000000000000000000, 15.00000000000000000, 0.0000000000000000000 ) ) ;
#158 = CC_DESIGN_DATE_AND_TIME_ASSIGNMENT ( #36, #52, ( #87 ) ) ;
#159 = DIRECTION ( 'NONE',  ( 0.0000000000000000000, 0.0000000000000000000, 1.000000000000000000 ) ) ;
#160 = EDGE_LOOP ( 'NONE', ( #58 ) ) ;
#161 =( NAMED_UNIT ( * ) SI_UNIT ( $, .STERADIAN. ) SOLID_ANGLE_UNIT ( ) );
#162 = PERSON_AND_ORGANIZATION ( #66, #136 ) ;
#163 = PERSON_AND_ORGANIZATION_ROLE ( 'creator' ) ;
#164 = DATE_TIME_ROLE ( 'classification_date' ) ;
#165 = DATE_AND_TIME ( #9, #85 ) ;
#166 = DIRECTION ( 'NONE',  ( -3.491481338843133355E-15, -7.108148171589276333E-16, -1.000000000000000000 ) ) ;
#167 = COORDINATED_UNIVERSAL_TIME_OFFSET ( 1, 0, .AHEAD. ) ;
#168 = LOCAL_TIME ( 14, 0, 2.000000000000000000, #53 ) ;
#169 = PRODUCT_DEFINITION_FORMATION_WITH_SPECIFIED_SOURCE ( 'ANY', '', #111, .NOT_KNOWN. ) ;
ENDSEC;
END-ISO-10303-21;
