ISO-10303-21;
HEADER;
FILE_DESCRIPTION (( 'STEP AP203' ),
    '1' );
FILE_NAME ('63796.step',
    '2021-11-30T06:45:03',
    ( '' ),
    ( '' ),
    'SwSTEP 2.0',
    'SolidWorks 2019',
    '' );
FILE_SCHEMA (( 'CONFIG_CONTROL_DESIGN' ));
ENDSEC;

DATA;
#1 = SHAPE_DEFINITION_REPRESENTATION ( #147, #93 ) ;
#2 = APPROVAL_STATUS ( 'not_yet_approved' ) ;
#3 = CIRCLE ( 'NONE', #216, 0.9153844939755801935 ) ;
#4 = EDGE_CURVE ( 'NONE', #288, #288, #3, .T. ) ;
#5 = FACE_OUTER_BOUND ( 'NONE', #84, .T. ) ;
#6 =( GEOMETRIC_REPRESENTATION_CONTEXT ( 3 ) GLOBAL_UNCERTAINTY_ASSIGNED_CONTEXT ( ( #278 ) ) GLOBAL_UNIT_ASSIGNED_CONTEXT ( ( #183, #32, #243 ) ) REPRESENTATION_CONTEXT ( 'NONE', 'WORKASPACE' ) );
#7 = EDGE_LOOP ( 'NONE', ( #95 ) ) ;
#8 = EDGE_LOOP ( 'NONE', ( #114 ) ) ;
#9 = MECHANICAL_CONTEXT ( 'NONE', #303, 'mechanical' ) ;
#10 = CARTESIAN_POINT ( 'NONE',  ( 6.284666409917640040E-14, -2.168404344971008868E-15, 18.00000000000000000 ) ) ;
#11 = ORIENTED_EDGE ( 'NONE', *, *, #73, .T. ) ;
#12 = DIRECTION ( 'NONE',  ( 4.275831445896958607E-31, 1.000000000000000000, 1.224646799147353207E-16 ) ) ;
#13 = CC_DESIGN_PERSON_AND_ORGANIZATION_ASSIGNMENT ( #102, #189, ( #89 ) ) ;
#14 = CARTESIAN_POINT ( 'NONE',  ( 1.745740669421566678E-13, -6.123233995736766085E-15, 50.00000000000000000 ) ) ;
#15 = EDGE_CURVE ( 'NONE', #177, #177, #193, .T. ) ;
#16 = CARTESIAN_POINT ( 'NONE',  ( 7.563531657521603269E-14, 1.499999999999994005, 21.66281564611685084 ) ) ;
#17 = CC_DESIGN_APPROVAL ( #26, ( #214 ) ) ;
#18 = DIRECTION ( 'NONE',  ( -3.491481338843133355E-15, 1.224646799147353207E-16, -1.000000000000000000 ) ) ;
#19 = ADVANCED_FACE ( 'NONE', ( #210, #247 ), #83, .T. ) ;
#20 = FACE_OUTER_BOUND ( 'NONE', #8, .T. ) ;
#21 = DIRECTION ( 'NONE',  ( -3.491481338843133355E-15, 1.224646799147353207E-16, -1.000000000000000000 ) ) ;
#22 = PERSON_AND_ORGANIZATION ( #57, #292 ) ;
#23 = CALENDAR_DATE ( 2021, 30, 11 ) ;
#24 = COORDINATED_UNIVERSAL_TIME_OFFSET ( 1, 0, .AHEAD. ) ;
#25 = PERSON_AND_ORGANIZATION ( #57, #292 ) ;
#26 = APPROVAL ( #2, 'UNSPECIFIED' ) ;
#27 = APPROVAL_ROLE ( '' ) ;
#28 = LOCAL_TIME ( 7, 45, 3.000000000000000000, #260 ) ;
#29 = CARTESIAN_POINT ( 'NONE',  ( 1.745740669421566678E-13, -6.123233995736766085E-15, 50.00000000000000000 ) ) ;
#30 = AXIS2_PLACEMENT_3D ( 'NONE', #90, #207, #270 ) ;
#31 = EDGE_LOOP ( 'NONE', ( #132 ) ) ;
#32 =( NAMED_UNIT ( * ) PLANE_ANGLE_UNIT ( ) SI_UNIT ( $, .RADIAN. ) );
#33 = FACE_OUTER_BOUND ( 'NONE', #223, .T. ) ;
#34 = DIRECTION ( 'NONE',  ( -3.491481338843133355E-15, 1.224646799147353207E-16, -1.000000000000000000 ) ) ;
#35 = CARTESIAN_POINT ( 'NONE',  ( 6.405924284287275164E-14, 0.9153844939755778620, 18.34729635533384595 ) ) ;
#36 = CARTESIAN_POINT ( 'NONE',  ( -5.716023673872637698E-31, 2.004911215815930713E-32, -1.637134247369795021E-16 ) ) ;
#37 = VERTEX_POINT ( 'NONE', #224 ) ;
#38 = EDGE_LOOP ( 'NONE', ( #53 ) ) ;
#39 = DIRECTION ( 'NONE',  ( 4.275831445896958607E-31, 1.000000000000000000, 1.224646799147353207E-16 ) ) ;
#40 = CARTESIAN_POINT ( 'NONE',  ( 8.728703347107833388E-16, 1.038499999999998868, 0.2500000000000000000 ) ) ;
#41 = AXIS2_PLACEMENT_3D ( 'NONE', #10, #162, #159 ) ;
#42 = CARTESIAN_POINT ( 'NONE',  ( 7.563531657521603269E-14, -2.652929784153620030E-15, 21.66281564611685084 ) ) ;
#43 = FACE_BOUND ( 'NONE', #140, .T. ) ;
#44 = CARTESIAN_POINT ( 'NONE',  ( 2.886013015238225878E-14, -1.012277099146737755E-15, 8.265869798961826831 ) ) ;
#45 = MANIFOLD_SOLID_BREP ( 'Corps-Déplacer/Copier1[2]', #59 ) ;
#46 = PERSON_AND_ORGANIZATION_ROLE ( 'classification_officer' ) ;
#47 = DIRECTION ( 'NONE',  ( 0.0000000000000000000, 1.000000000000000000, 0.0000000000000000000 ) ) ;
#48 = APPROVAL_PERSON_ORGANIZATION ( #211, #26, #301 ) ;
#49 = CC_DESIGN_DATE_AND_TIME_ASSIGNMENT ( #258, #68, ( #214 ) ) ;
#50 = DIRECTION ( 'NONE',  ( 0.0000000000000000000, 1.000000000000000000, 0.0000000000000000000 ) ) ;
#51 = CALENDAR_DATE ( 2021, 30, 11 ) ;
#52 = AXIS2_PLACEMENT_3D ( 'NONE', #283, #122, #143 ) ;
#53 = ORIENTED_EDGE ( 'NONE', *, *, #117, .T. ) ;
#54 = AXIS2_PLACEMENT_3D ( 'NONE', #190, #170, #50 ) ;
#55 = EDGE_LOOP ( 'NONE', ( #206 ) ) ;
#56 = CARTESIAN_POINT ( 'NONE',  ( 2.793185071074506684E-14, 1.038499999999998868, 8.000000000000000000 ) ) ;
#57 = PERSON ( 'UNSPECIFIED', 'UNSPECIFIED', 'UNSPECIFIED', ('UNSPECIFIED'), ('UNSPECIFIED'), ('UNSPECIFIED') ) ;
#58 = VERTEX_POINT ( 'NONE', #40 ) ;
#59 = CLOSED_SHELL ( 'NONE', ( #272, #19, #261, #130 ) ) ;
#60 = AXIS2_PLACEMENT_3D ( 'NONE', #225, #34, #290 ) ;
#61 = DIRECTION ( 'NONE',  ( -3.491481338843133355E-15, 1.224646799147353207E-16, -1.000000000000000000 ) ) ;
#62 = EDGE_LOOP ( 'NONE', ( #87 ) ) ;
#63 = FACE_OUTER_BOUND ( 'NONE', #62, .T. ) ;
#64 = DIRECTION ( 'NONE',  ( -3.491481338843133355E-15, 1.224646799147353207E-16, -1.000000000000000000 ) ) ;
#65 = ORIENTED_EDGE ( 'NONE', *, *, #15, .F. ) ;
#66 = APPROVAL_PERSON_ORGANIZATION ( #25, #198, #27 ) ;
#67 = COORDINATED_UNIVERSAL_TIME_OFFSET ( 1, 0, .AHEAD. ) ;
#68 = DATE_TIME_ROLE ( 'creation_date' ) ;
#69 = DIRECTION ( 'NONE',  ( 3.491481338843133355E-15, -1.224646799147353207E-16, 1.000000000000000000 ) ) ;
#70 = PERSON_AND_ORGANIZATION ( #57, #292 ) ;
#71 = CC_DESIGN_PERSON_AND_ORGANIZATION_ASSIGNMENT ( #70, #166, ( #89 ) ) ;
#72 = SECURITY_CLASSIFICATION ( '', '', #149 ) ;
#73 = EDGE_CURVE ( 'NONE', #58, #58, #285, .T. ) ;
#74 = DATE_AND_TIME ( #51, #28 ) ;
#75 = EDGE_CURVE ( 'NONE', #248, #248, #281, .T. ) ;
#76 = FACE_BOUND ( 'NONE', #111, .T. ) ;
#77 = CIRCLE ( 'NONE', #52, 0.8849999999999998979 ) ;
#78 = EDGE_LOOP ( 'NONE', ( #153 ) ) ;
#79 = EDGE_CURVE ( 'NONE', #266, #266, #196, .T. ) ;
#80 = EDGE_CURVE ( 'NONE', #299, #299, #302, .T. ) ;
#81 = EDGE_CURVE ( 'NONE', #178, #178, #152, .T. ) ;
#82 = AXIS2_PLACEMENT_3D ( 'NONE', #94, #279, #121 ) ;
#83 = CONICAL_SURFACE ( 'NONE', #267, 1.038499999999998868, 0.5235987755982925984 ) ;
#84 = EDGE_LOOP ( 'NONE', ( #65 ) ) ;
#85 = CYLINDRICAL_SURFACE ( 'NONE', #105, 1.038499999999999535 ) ;
#86 = PLANE ( 'NONE',  #244 ) ;
#87 = ORIENTED_EDGE ( 'NONE', *, *, #141, .T. ) ;
#88 = EDGE_CURVE ( 'NONE', #160, #160, #77, .T. ) ;
#89 = PRODUCT_DEFINITION_FORMATION_WITH_SPECIFIED_SOURCE ( 'ANY', '', #125, .NOT_KNOWN. ) ;
#90 = CARTESIAN_POINT ( 'NONE',  ( 0.0000000000000000000, 0.0000000000000000000, 0.0000000000000000000 ) ) ;
#91 = EDGE_LOOP ( 'NONE', ( #298 ) ) ;
#92 = ORIENTED_EDGE ( 'NONE', *, *, #88, .T. ) ;
#93 = ADVANCED_BREP_SHAPE_REPRESENTATION ( '63796', ( #151, #45, #236 ), #6 ) ;
#94 = CARTESIAN_POINT ( 'NONE',  ( 2.886013015238225878E-14, -1.012277099146737755E-15, 8.265869798961826831 ) ) ;
#95 = ORIENTED_EDGE ( 'NONE', *, *, #75, .F. ) ;
#96 = AXIS2_PLACEMENT_3D ( 'NONE', #249, #18, #208 ) ;
#97 = CALENDAR_DATE ( 2021, 30, 11 ) ;
#98 = CARTESIAN_POINT ( 'NONE',  ( 2.793185071074506684E-14, 7.787502671471679399E-33, 8.000000000000000000 ) ) ;
#99 = DIRECTION ( 'NONE',  ( -4.275831445896958607E-31, -1.000000000000000000, -1.224646799147353207E-16 ) ) ;
#100 = PLANE ( 'NONE',  #218 ) ;
#101 = ADVANCED_FACE ( 'NONE', ( #148 ), #100, .F. ) ;
#102 = PERSON_AND_ORGANIZATION ( #57, #292 ) ;
#103 = AXIS2_PLACEMENT_3D ( 'NONE', #300, #64, #109 ) ;
#104 = APPLICATION_CONTEXT ( 'configuration controlled 3d designs of mechanical parts and assemblies' ) ;
#105 = AXIS2_PLACEMENT_3D ( 'NONE', #204, #179, #12 ) ;
#106 = ORIENTED_EDGE ( 'NONE', *, *, #141, .F. ) ;
#107 = CC_DESIGN_APPROVAL ( #198, ( #72 ) ) ;
#108 = ORIENTED_EDGE ( 'NONE', *, *, #80, .T. ) ;
#109 = DIRECTION ( 'NONE',  ( 3.709061038781392428E-31, 1.000000000000000000, 1.044007869509393984E-16 ) ) ;
#110 = CYLINDRICAL_SURFACE ( 'NONE', #30, 1.499999999999999112 ) ;
#111 = EDGE_LOOP ( 'NONE', ( #108 ) ) ;
#112 = AXIS2_PLACEMENT_3D ( 'NONE', #14, #161, #184 ) ;
#113 = FACE_BOUND ( 'NONE', #55, .T. ) ;
#114 = ORIENTED_EDGE ( 'NONE', *, *, #81, .F. ) ;
#115 = APPROVAL ( #215, 'UNSPECIFIED' ) ;
#116 = CARTESIAN_POINT ( 'NONE',  ( 2.886013015238225878E-14, 0.8849999999999978995, 8.265869798961826831 ) ) ;
#117 = EDGE_CURVE ( 'NONE', #209, #209, #217, .T. ) ;
#118 = ORIENTED_EDGE ( 'NONE', *, *, #81, .T. ) ;
#119 = AXIS2_PLACEMENT_3D ( 'NONE', #44, #21, #294 ) ;
#120 = APPROVAL_DATE_TIME ( #280, #198 ) ;
#121 = DIRECTION ( 'NONE',  ( 0.0000000000000000000, 1.000000000000000000, 0.0000000000000000000 ) ) ;
#122 = DIRECTION ( 'NONE',  ( -3.491481338843133355E-15, 1.224646799147353207E-16, -1.000000000000000000 ) ) ;
#123 = CALENDAR_DATE ( 2021, 30, 11 ) ;
#124 = PERSON_AND_ORGANIZATION ( #57, #292 ) ;
#125 = PRODUCT ( '63796', '63796', '', ( #9 ) ) ;
#126 = FACE_OUTER_BOUND ( 'NONE', #182, .T. ) ;
#127 = APPROVAL_ROLE ( '' ) ;
#128 = DIRECTION ( 'NONE',  ( 0.0000000000000000000, 1.000000000000000000, 0.0000000000000000000 ) ) ;
#129 = AXIS2_PLACEMENT_3D ( 'NONE', #213, #250, #39 ) ;
#130 = ADVANCED_FACE ( 'NONE', ( #20 ), #165, .T. ) ;
#131 = AXIS2_PLACEMENT_3D ( 'NONE', #242, #256, #269 ) ;
#132 = ORIENTED_EDGE ( 'NONE', *, *, #80, .F. ) ;
#133 = PLANE ( 'NONE',  #186 ) ;
#134 = DIRECTION ( 'NONE',  ( 4.275831445896958607E-31, 1.000000000000000000, 1.224646799147353207E-16 ) ) ;
#135 = DIRECTION ( 'NONE',  ( -3.709061038781392428E-31, -1.000000000000000000, -1.044007869509393984E-16 ) ) ;
#136 = CLOSED_SHELL ( 'NONE', ( #101, #195, #239, #252, #240, #274, #233, #138 ) ) ;
#137 = AXIS2_PLACEMENT_3D ( 'NONE', #29, #172, #128 ) ;
#138 = ADVANCED_FACE ( 'NONE', ( #201 ), #86, .F. ) ;
#139 = DIRECTION ( 'NONE',  ( 3.491481338843133355E-15, -1.224646799147353207E-16, 1.000000000000000000 ) ) ;
#140 = EDGE_LOOP ( 'NONE', ( #174 ) ) ;
#141 = EDGE_CURVE ( 'NONE', #37, #37, #173, .T. ) ;
#142 = CARTESIAN_POINT ( 'NONE',  ( 1.735266225405037467E-13, -6.086494591762345225E-15, 49.70000000000000284 ) ) ;
#143 = DIRECTION ( 'NONE',  ( 0.0000000000000000000, 1.000000000000000000, 0.0000000000000000000 ) ) ;
#144 = COORDINATED_UNIVERSAL_TIME_OFFSET ( 1, 0, .AHEAD. ) ;
#145 = FACE_OUTER_BOUND ( 'NONE', #203, .T. ) ;
#146 = APPLICATION_PROTOCOL_DEFINITION ( 'international standard', 'config_control_design', 1994, #104 ) ;
#147 = PRODUCT_DEFINITION_SHAPE ( 'NONE', 'NONE',  #214 ) ;
#148 = FACE_OUTER_BOUND ( 'NONE', #38, .T. ) ;
#149 = SECURITY_CLASSIFICATION_LEVEL ( 'unclassified' ) ;
#150 = CC_DESIGN_PERSON_AND_ORGANIZATION_ASSIGNMENT ( #124, #171, ( #125 ) ) ;
#151 = MANIFOLD_SOLID_BREP ( 'Corps-Déplacer/Copier1[1]', #136 ) ;
#152 = CIRCLE ( 'NONE', #96, 1.038499999999999979 ) ;
#153 = ORIENTED_EDGE ( 'NONE', *, *, #4, .T. ) ;
#154 = FACE_OUTER_BOUND ( 'NONE', #78, .T. ) ;
#155 = CARTESIAN_POINT ( 'NONE',  ( 2.793185071074506684E-14, 1.038499999999998868, 8.000000000000000000 ) ) ;
#156 = FACE_OUTER_BOUND ( 'NONE', #158, .T. ) ;
#157 = CARTESIAN_POINT ( 'NONE',  ( 6.284666409917640040E-14, 0.8849999999999977884, 18.00000000000000000 ) ) ;
#158 = EDGE_LOOP ( 'NONE', ( #220 ) ) ;
#159 = DIRECTION ( 'NONE',  ( 4.275831445896958607E-31, 1.000000000000000000, 1.224646799147353207E-16 ) ) ;
#160 = VERTEX_POINT ( 'NONE', #157 ) ;
#161 = DIRECTION ( 'NONE',  ( -3.491481338843133355E-15, 1.224646799147353207E-16, -1.000000000000000000 ) ) ;
#162 = DIRECTION ( 'NONE',  ( -3.491481338843133355E-15, 1.224646799147353207E-16, -1.000000000000000000 ) ) ;
#163 = EDGE_LOOP ( 'NONE', ( #118 ) ) ;
#164 = LOCAL_TIME ( 7, 45, 3.000000000000000000, #277 ) ;
#165 = PLANE ( 'NONE',  #131 ) ;
#166 = PERSON_AND_ORGANIZATION_ROLE ( 'creator' ) ;
#167 = DESIGN_CONTEXT ( 'detailed design', #104, 'design' ) ;
#168 = PERSON_AND_ORGANIZATION ( #57, #292 ) ;
#169 = CONICAL_SURFACE ( 'NONE', #137, 1.200000000000001732, 0.7853981633974453924 ) ;
#170 = DIRECTION ( 'NONE',  ( -3.491481338843133355E-15, 1.224646799147353207E-16, -1.000000000000000000 ) ) ;
#171 = PERSON_AND_ORGANIZATION_ROLE ( 'design_owner' ) ;
#172 = DIRECTION ( 'NONE',  ( -3.491481338843133355E-15, 1.224646799147353207E-16, -1.000000000000000000 ) ) ;
#173 = CIRCLE ( 'NONE', #254, 1.500000000000001554 ) ;
#174 = ORIENTED_EDGE ( 'NONE', *, *, #15, .T. ) ;
#175 = TOROIDAL_SURFACE ( 'NONE', #41, 2.884999999999999787, 2.000000000000000000 ) ;
#176 = ORIENTED_EDGE ( 'NONE', *, *, #79, .F. ) ;
#177 = VERTEX_POINT ( 'NONE', #116 ) ;
#178 = VERTEX_POINT ( 'NONE', #56 ) ;
#179 = DIRECTION ( 'NONE',  ( -3.491481338843133355E-15, 1.224646799147353207E-16, -1.000000000000000000 ) ) ;
#180 = DIRECTION ( 'NONE',  ( 3.491481338843133355E-15, -1.224646799147353207E-16, 1.000000000000000000 ) ) ;
#181 = FACE_OUTER_BOUND ( 'NONE', #275, .T. ) ;
#182 = EDGE_LOOP ( 'NONE', ( #92 ) ) ;
#183 =( LENGTH_UNIT ( ) NAMED_UNIT ( * ) SI_UNIT ( .MILLI., .METRE. ) );
#184 = DIRECTION ( 'NONE',  ( 0.0000000000000000000, 1.000000000000000000, 0.0000000000000000000 ) ) ;
#185 = PERSON_AND_ORGANIZATION ( #57, #292 ) ;
#186 = AXIS2_PLACEMENT_3D ( 'NONE', #264, #251, #226 ) ;
#187 = CYLINDRICAL_SURFACE ( 'NONE', #129, 0.8849999999999993427 ) ;
#188 = APPROVAL_DATE_TIME ( #194, #26 ) ;
#189 = PERSON_AND_ORGANIZATION_ROLE ( 'design_supplier' ) ;
#190 = CARTESIAN_POINT ( 'NONE',  ( 2.793185071074506684E-14, -9.797174393178825657E-16, 8.000000000000000000 ) ) ;
#191 = APPROVAL_STATUS ( 'not_yet_approved' ) ;
#192 = PRODUCT_RELATED_PRODUCT_CATEGORY ( 'detail', '', ( #125 ) ) ;
#193 = CIRCLE ( 'NONE', #119, 0.8849999999999988987 ) ;
#194 = DATE_AND_TIME ( #97, #286 ) ;
#195 = ADVANCED_FACE ( 'NONE', ( #145, #43 ), #262, .T. ) ;
#196 = CIRCLE ( 'NONE', #60, 1.499999999999996669 ) ;
#197 = ORIENTED_EDGE ( 'NONE', *, *, #75, .T. ) ;
#198 = APPROVAL ( #191, 'UNSPECIFIED' ) ;
#199 = LOCAL_TIME ( 7, 45, 3.000000000000000000, #67 ) ;
#200 = EDGE_LOOP ( 'NONE', ( #11 ) ) ;
#201 = FACE_OUTER_BOUND ( 'NONE', #31, .T. ) ;
#202 = CARTESIAN_POINT ( 'NONE',  ( 0.0000000000000000000, 0.0000000000000000000, 0.0000000000000000000 ) ) ;
#203 = EDGE_LOOP ( 'NONE', ( #268 ) ) ;
#204 = CARTESIAN_POINT ( 'NONE',  ( 0.0000000000000000000, 0.0000000000000000000, 0.0000000000000000000 ) ) ;
#205 = APPROVAL_PERSON_ORGANIZATION ( #168, #115, #127 ) ;
#206 = ORIENTED_EDGE ( 'NONE', *, *, #4, .F. ) ;
#207 = DIRECTION ( 'NONE',  ( -3.491481338843133355E-15, 1.224646799147353207E-16, -1.000000000000000000 ) ) ;
#208 = DIRECTION ( 'NONE',  ( 0.0000000000000000000, 1.000000000000000000, 0.0000000000000000000 ) ) ;
#209 = VERTEX_POINT ( 'NONE', #155 ) ;
#210 = FACE_BOUND ( 'NONE', #7, .T. ) ;
#211 = PERSON_AND_ORGANIZATION ( #57, #292 ) ;
#212 = AXIS2_PLACEMENT_3D ( 'NONE', #36, #228, #134 ) ;
#213 = CARTESIAN_POINT ( 'NONE',  ( 0.0000000000000000000, 0.0000000000000000000, 0.0000000000000000000 ) ) ;
#214 = PRODUCT_DEFINITION ( 'UNKNOWN', '', #89, #167 ) ;
#215 = APPROVAL_STATUS ( 'not_yet_approved' ) ;
#216 = AXIS2_PLACEMENT_3D ( 'NONE', #255, #230, #245 ) ;
#217 = CIRCLE ( 'NONE', #54, 1.038499999999999979 ) ;
#218 = AXIS2_PLACEMENT_3D ( 'NONE', #98, #69, #99 ) ;
#219 = CC_DESIGN_PERSON_AND_ORGANIZATION_ASSIGNMENT ( #22, #282, ( #214 ) ) ;
#220 = ORIENTED_EDGE ( 'NONE', *, *, #88, .F. ) ;
#221 = DIRECTION ( 'NONE',  ( 0.0000000000000000000, -1.000000000000000000, 0.0000000000000000000 ) ) ;
#222 = CONICAL_SURFACE ( 'NONE', #227, 1.499999999999996669, 0.1745329251994265363 ) ;
#223 = EDGE_LOOP ( 'NONE', ( #176 ) ) ;
#224 = CARTESIAN_POINT ( 'NONE',  ( 1.735266225405037467E-13, 1.499999999999995559, 49.70000000000000284 ) ) ;
#225 = CARTESIAN_POINT ( 'NONE',  ( 7.563531657521603269E-14, -2.652929784153620030E-15, 21.66281564611685084 ) ) ;
#226 = DIRECTION ( 'NONE',  ( -4.275831445896958607E-31, -1.000000000000000000, -1.224646799147353207E-16 ) ) ;
#227 = AXIS2_PLACEMENT_3D ( 'NONE', #42, #139, #221 ) ;
#228 = DIRECTION ( 'NONE',  ( -3.491481338843133355E-15, 1.224646799147353207E-16, -1.000000000000000000 ) ) ;
#229 = APPLICATION_PROTOCOL_DEFINITION ( 'international standard', 'config_control_design', 1994, #303 ) ;
#230 = DIRECTION ( 'NONE',  ( -3.491481338843133355E-15, 1.224646799147353207E-16, -1.000000000000000000 ) ) ;
#231 = APPROVAL_DATE_TIME ( #74, #115 ) ;
#232 = DATE_AND_TIME ( #234, #199 ) ;
#233 = ADVANCED_FACE ( 'NONE', ( #284, #76 ), #169, .T. ) ;
#234 = CALENDAR_DATE ( 2021, 30, 11 ) ;
#235 = LOCAL_TIME ( 7, 45, 3.000000000000000000, #144 ) ;
#236 = AXIS2_PLACEMENT_3D ( 'NONE', #202, #273, #246 ) ;
#237 = CC_DESIGN_PERSON_AND_ORGANIZATION_ASSIGNMENT ( #185, #46, ( #72 ) ) ;
#238 = EDGE_LOOP ( 'NONE', ( #287 ) ) ;
#239 = ADVANCED_FACE ( 'NONE', ( #5, #126 ), #187, .T. ) ;
#240 = ADVANCED_FACE ( 'NONE', ( #113, #253 ), #222, .T. ) ;
#241 = EDGE_LOOP ( 'NONE', ( #106 ) ) ;
#242 = CARTESIAN_POINT ( 'NONE',  ( 2.793185071074506684E-14, 7.787502671471679399E-33, 8.000000000000000000 ) ) ;
#243 =( NAMED_UNIT ( * ) SI_UNIT ( $, .STERADIAN. ) SOLID_ANGLE_UNIT ( ) );
#244 = AXIS2_PLACEMENT_3D ( 'NONE', #265, #61, #296 ) ;
#245 = DIRECTION ( 'NONE',  ( 0.0000000000000000000, 1.000000000000000000, 0.0000000000000000000 ) ) ;
#246 = DIRECTION ( 'NONE',  ( 1.000000000000000000, 0.0000000000000000000, 0.0000000000000000000 ) ) ;
#247 = FACE_OUTER_BOUND ( 'NONE', #200, .T. ) ;
#248 = VERTEX_POINT ( 'NONE', #297 ) ;
#249 = CARTESIAN_POINT ( 'NONE',  ( 2.793185071074506684E-14, -9.797174393178825657E-16, 8.000000000000000000 ) ) ;
#250 = DIRECTION ( 'NONE',  ( -3.491481338843133355E-15, 1.224646799147353207E-16, -1.000000000000000000 ) ) ;
#251 = DIRECTION ( 'NONE',  ( 3.491481338843133355E-15, -1.224646799147353207E-16, 1.000000000000000000 ) ) ;
#252 = ADVANCED_FACE ( 'NONE', ( #156, #154 ), #175, .F. ) ;
#253 = FACE_OUTER_BOUND ( 'NONE', #238, .T. ) ;
#254 = AXIS2_PLACEMENT_3D ( 'NONE', #142, #293, #47 ) ;
#255 = CARTESIAN_POINT ( 'NONE',  ( 6.405924284287275164E-14, -2.246895775456749140E-15, 18.34729635533384595 ) ) ;
#256 = DIRECTION ( 'NONE',  ( 3.491481338843133355E-15, -1.224646799147353207E-16, 1.000000000000000000 ) ) ;
#257 = DATE_TIME_ROLE ( 'classification_date' ) ;
#258 = DATE_AND_TIME ( #123, #164 ) ;
#259 = CC_DESIGN_APPROVAL ( #115, ( #89 ) ) ;
#260 = COORDINATED_UNIVERSAL_TIME_OFFSET ( 1, 0, .AHEAD. ) ;
#261 = ADVANCED_FACE ( 'NONE', ( #289, #263 ), #85, .T. ) ;
#262 = CONICAL_SURFACE ( 'NONE', #82, 0.8849999999999988987, 0.5235987755982941527 ) ;
#263 = FACE_OUTER_BOUND ( 'NONE', #163, .T. ) ;
#264 = CARTESIAN_POINT ( 'NONE',  ( -2.858011836936318849E-31, 1.002455607907965357E-32, -8.185671236848975106E-17 ) ) ;
#265 = CARTESIAN_POINT ( 'NONE',  ( 1.745740669421566678E-13, 8.998558695971067645E-33, 50.00000000000000000 ) ) ;
#266 = VERTEX_POINT ( 'NONE', #16 ) ;
#267 = AXIS2_PLACEMENT_3D ( 'NONE', #271, #180, #135 ) ;
#268 = ORIENTED_EDGE ( 'NONE', *, *, #117, .F. ) ;
#269 = DIRECTION ( 'NONE',  ( -4.275831445896958607E-31, -1.000000000000000000, -1.224646799147353207E-16 ) ) ;
#270 = DIRECTION ( 'NONE',  ( 4.275831445896958607E-31, 1.000000000000000000, 1.224646799147353454E-16 ) ) ;
#271 = CARTESIAN_POINT ( 'NONE',  ( 8.728703347107829444E-16, -3.061616997868381785E-17, 0.2499999999999998890 ) ) ;
#272 = ADVANCED_FACE ( 'NONE', ( #181 ), #133, .F. ) ;
#273 = DIRECTION ( 'NONE',  ( 0.0000000000000000000, 0.0000000000000000000, 1.000000000000000000 ) ) ;
#274 = ADVANCED_FACE ( 'NONE', ( #33, #63 ), #110, .T. ) ;
#275 = EDGE_LOOP ( 'NONE', ( #197 ) ) ;
#276 = CC_DESIGN_SECURITY_CLASSIFICATION ( #72, ( #89 ) ) ;
#277 = COORDINATED_UNIVERSAL_TIME_OFFSET ( 1, 0, .AHEAD. ) ;
#278 = UNCERTAINTY_MEASURE_WITH_UNIT (LENGTH_MEASURE( 1.000000000000000082E-05 ), #183, 'distance_accuracy_value', 'NONE');
#279 = DIRECTION ( 'NONE',  ( -3.491481338843133355E-15, 1.224646799147353207E-16, -1.000000000000000000 ) ) ;
#280 = DATE_AND_TIME ( #23, #235 ) ;
#281 = CIRCLE ( 'NONE', #212, 0.8941624327025944341 ) ;
#282 = PERSON_AND_ORGANIZATION_ROLE ( 'creator' ) ;
#283 = CARTESIAN_POINT ( 'NONE',  ( 6.284666409917640040E-14, -2.204364238465235428E-15, 18.00000000000000000 ) ) ;
#284 = FACE_OUTER_BOUND ( 'NONE', #241, .T. ) ;
#285 = CIRCLE ( 'NONE', #103, 1.038499999999998868 ) ;
#286 = LOCAL_TIME ( 7, 45, 3.000000000000000000, #24 ) ;
#287 = ORIENTED_EDGE ( 'NONE', *, *, #79, .T. ) ;
#288 = VERTEX_POINT ( 'NONE', #35 ) ;
#289 = FACE_OUTER_BOUND ( 'NONE', #91, .T. ) ;
#290 = DIRECTION ( 'NONE',  ( 0.0000000000000000000, 1.000000000000000000, 0.0000000000000000000 ) ) ;
#291 = CARTESIAN_POINT ( 'NONE',  ( 1.745740669421566678E-13, 1.199999999999995515, 50.00000000000000000 ) ) ;
#292 = ORGANIZATION ( 'UNSPECIFIED', 'UNSPECIFIED', '' ) ;
#293 = DIRECTION ( 'NONE',  ( -3.491481338843133355E-15, 1.224646799147353207E-16, -1.000000000000000000 ) ) ;
#294 = DIRECTION ( 'NONE',  ( 0.0000000000000000000, 1.000000000000000000, 0.0000000000000000000 ) ) ;
#295 = CC_DESIGN_DATE_AND_TIME_ASSIGNMENT ( #232, #257, ( #72 ) ) ;
#296 = DIRECTION ( 'NONE',  ( 4.275831445896958607E-31, 1.000000000000000000, 1.224646799147353207E-16 ) ) ;
#297 = CARTESIAN_POINT ( 'NONE',  ( -1.892735826383160919E-31, 0.8941624327025944341, -5.421010862427522170E-17 ) ) ;
#298 = ORIENTED_EDGE ( 'NONE', *, *, #73, .F. ) ;
#299 = VERTEX_POINT ( 'NONE', #291 ) ;
#300 = CARTESIAN_POINT ( 'NONE',  ( 8.728703347107829444E-16, -3.061616997868381785E-17, 0.2499999999999998890 ) ) ;
#301 = APPROVAL_ROLE ( '' ) ;
#302 = CIRCLE ( 'NONE', #112, 1.200000000000001732 ) ;
#303 = APPLICATION_CONTEXT ( 'configuration controlled 3d designs of mechanical parts and assemblies' ) ;
ENDSEC;
END-ISO-10303-21;
