ISO-10303-21;
HEADER;
FILE_DESCRIPTION (( 'STEP AP203' ),
    '1' );
FILE_NAME ('63795.step',
    '2021-11-30T08:32:43',
    ( '' ),
    ( '' ),
    'SwSTEP 2.0',
    'SolidWorks 2019',
    '' );
FILE_SCHEMA (( 'CONFIG_CONTROL_DESIGN' ));
ENDSEC;

DATA;
#1 = DIRECTION ( 'NONE',  ( -3.491481338843133355E-15, 1.224646799147353207E-16, -1.000000000000000000 ) ) ;
#2 = DIRECTION ( 'NONE',  ( 4.275831445896958607E-31, 1.000000000000000000, 1.224646799147353207E-16 ) ) ;
#3 = DIRECTION ( 'NONE',  ( -4.275831445896958607E-31, -1.000000000000000000, -1.224646799147353207E-16 ) ) ;
#4 = AXIS2_PLACEMENT_3D ( 'NONE', #139, #235, #5 ) ;
#5 = DIRECTION ( 'NONE',  ( 0.0000000000000000000, 1.000000000000000000, 0.0000000000000000000 ) ) ;
#6 = VERTEX_POINT ( 'NONE', #190 ) ;
#7 = CARTESIAN_POINT ( 'NONE',  ( 6.941812510639767050E-14, -2.434860062649754866E-15, 19.88214123733471084 ) ) ;
#8 = EDGE_LOOP ( 'NONE', ( #287 ) ) ;
#9 = CARTESIAN_POINT ( 'NONE',  ( 0.0000000000000000000, 0.0000000000000000000, 0.0000000000000000000 ) ) ;
#10 = ORIENTED_EDGE ( 'NONE', *, *, #219, .T. ) ;
#11 = CIRCLE ( 'NONE', #197, 0.7734999999999999654 ) ;
#12 = CARTESIAN_POINT ( 'NONE',  ( 1.735266225405037467E-13, 1.499999999999995559, 49.70000000000000284 ) ) ;
#13 = DIRECTION ( 'NONE',  ( -4.979780075985101891E-31, -1.000000000000000000, -1.401683480912095321E-16 ) ) ;
#14 = VERTEX_POINT ( 'NONE', #214 ) ;
#15 = DIRECTION ( 'NONE',  ( 0.0000000000000000000, 1.000000000000000000, 0.0000000000000000000 ) ) ;
#16 = CARTESIAN_POINT ( 'NONE',  ( 5.237222008264700033E-14, -1.734723475976807094E-15, 15.00000000000000000 ) ) ;
#17 = DIRECTION ( 'NONE',  ( 1.000000000000000000, 0.0000000000000000000, 0.0000000000000000000 ) ) ;
#18 = ADVANCED_FACE ( 'NONE', ( #201, #246 ), #249, .T. ) ;
#19 = COORDINATED_UNIVERSAL_TIME_OFFSET ( 1, 0, .AHEAD. ) ;
#20 = PRODUCT ( '63795', '63795', '', ( #247 ) ) ;
#21 = AXIS2_PLACEMENT_3D ( 'NONE', #163, #258, #238 ) ;
#22 = CC_DESIGN_SECURITY_CLASSIFICATION ( #281, ( #115 ) ) ;
#23 = PERSON_AND_ORGANIZATION ( #205, #301 ) ;
#24 = APPROVAL_STATUS ( 'not_yet_approved' ) ;
#25 = DIRECTION ( 'NONE',  ( -4.275831445896958607E-31, -1.000000000000000000, -1.224646799147353207E-16 ) ) ;
#26 = CLOSED_SHELL ( 'NONE', ( #30, #18, #27, #273 ) ) ;
#27 = ADVANCED_FACE ( 'NONE', ( #293, #137 ), #88, .T. ) ;
#28 = DIRECTION ( 'NONE',  ( -3.491481338843133355E-15, 1.224646799147353207E-16, -1.000000000000000000 ) ) ;
#29 = AXIS2_PLACEMENT_3D ( 'NONE', #55, #244, #13 ) ;
#30 = ADVANCED_FACE ( 'NONE', ( #146 ), #50, .F. ) ;
#31 = CARTESIAN_POINT ( 'NONE',  ( 5.358479882634335789E-14, -1.879501735712543302E-15, 15.34729635533384595 ) ) ;
#32 = ORIENTED_EDGE ( 'NONE', *, *, #279, .F. ) ;
#33 = CARTESIAN_POINT ( 'NONE',  ( 5.237222008264700033E-14, -1.836970198721029589E-15, 15.00000000000000000 ) ) ;
#34 = EDGE_LOOP ( 'NONE', ( #10 ) ) ;
#35 = CIRCLE ( 'NONE', #141, 0.6700000000000009281 ) ;
#36 = APPROVAL_PERSON_ORGANIZATION ( #228, #129, #181 ) ;
#37 = FACE_OUTER_BOUND ( 'NONE', #123, .T. ) ;
#38 = FACE_OUTER_BOUND ( 'NONE', #122, .T. ) ;
#39 = PERSON_AND_ORGANIZATION ( #205, #301 ) ;
#40 = CIRCLE ( 'NONE', #73, 1.500000000000001554 ) ;
#41 = APPROVAL_DATE_TIME ( #86, #89 ) ;
#42 = PERSON_AND_ORGANIZATION_ROLE ( 'classification_officer' ) ;
#43 = AXIS2_PLACEMENT_3D ( 'NONE', #106, #298, #272 ) ;
#44 = EDGE_CURVE ( 'NONE', #222, #222, #211, .T. ) ;
#45 = CIRCLE ( 'NONE', #4, 0.7734999999999999654 ) ;
#46 = CARTESIAN_POINT ( 'NONE',  ( 2.444036937190193349E-14, 5.800320959444721353E-33, 7.000000000000000000 ) ) ;
#47 = CARTESIAN_POINT ( 'NONE',  ( 2.444036937190193349E-14, -8.572527594031473190E-16, 7.000000000000000000 ) ) ;
#48 = DIRECTION ( 'NONE',  ( 0.0000000000000000000, 1.000000000000000000, 0.0000000000000000000 ) ) ;
#49 = CARTESIAN_POINT ( 'NONE',  ( 1.735266225405037467E-13, -6.086494591762345225E-15, 49.70000000000000284 ) ) ;
#50 = PLANE ( 'NONE',  #148 ) ;
#51 = EDGE_LOOP ( 'NONE', ( #32 ) ) ;
#52 = VERTEX_POINT ( 'NONE', #240 ) ;
#53 = CARTESIAN_POINT ( 'NONE',  ( 8.728703347107829444E-16, -3.061616997868381785E-17, 0.2499999999999998890 ) ) ;
#54 = ORIENTED_EDGE ( 'NONE', *, *, #186, .F. ) ;
#55 = CARTESIAN_POINT ( 'NONE',  ( 8.728703347107829444E-16, -3.061616997868381785E-17, 0.2499999999999998890 ) ) ;
#56 = AXIS2_PLACEMENT_3D ( 'NONE', #135, #28, #2 ) ;
#57 = LOCAL_TIME ( 9, 32, 43.00000000000000000, #152 ) ;
#58 = ORIENTED_EDGE ( 'NONE', *, *, #133, .T. ) ;
#59 = DIRECTION ( 'NONE',  ( 0.0000000000000000000, 0.0000000000000000000, 1.000000000000000000 ) ) ;
#60 = EDGE_LOOP ( 'NONE', ( #70 ) ) ;
#61 = AXIS2_PLACEMENT_3D ( 'NONE', #53, #261, #218 ) ;
#62 = PERSON_AND_ORGANIZATION_ROLE ( 'design_supplier' ) ;
#63 = APPROVAL_STATUS ( 'not_yet_approved' ) ;
#64 = APPROVAL_PERSON_ORGANIZATION ( #23, #89, #303 ) ;
#65 = APPLICATION_CONTEXT ( 'configuration controlled 3d designs of mechanical parts and assemblies' ) ;
#66 =( NAMED_UNIT ( * ) PLANE_ANGLE_UNIT ( ) SI_UNIT ( $, .RADIAN. ) );
#67 = PLANE ( 'NONE',  #154 ) ;
#68 = PLANE ( 'NONE',  #136 ) ;
#69 = EDGE_LOOP ( 'NONE', ( #286 ) ) ;
#70 = ORIENTED_EDGE ( 'NONE', *, *, #279, .T. ) ;
#71 = CARTESIAN_POINT ( 'NONE',  ( 8.728703347107833388E-16, 0.7734999999999990772, 0.2500000000000000000 ) ) ;
#72 = DIRECTION ( 'NONE',  ( -3.491481338843133355E-15, 1.224646799147353207E-16, -1.000000000000000000 ) ) ;
#73 = AXIS2_PLACEMENT_3D ( 'NONE', #49, #213, #48 ) ;
#74 = VERTEX_POINT ( 'NONE', #183 ) ;
#75 = APPLICATION_CONTEXT ( 'configuration controlled 3d designs of mechanical parts and assemblies' ) ;
#76 = ORIENTED_EDGE ( 'NONE', *, *, #44, .F. ) ;
#77 = FACE_OUTER_BOUND ( 'NONE', #120, .T. ) ;
#78 = TOROIDAL_SURFACE ( 'NONE', #290, 2.669999999999999929, 2.000000000000000444 ) ;
#79 = DIRECTION ( 'NONE',  ( -3.491481338843133355E-15, 1.224646799147353207E-16, -1.000000000000000000 ) ) ;
#80 = APPROVAL_DATE_TIME ( #105, #129 ) ;
#81 = PERSON_AND_ORGANIZATION_ROLE ( 'creator' ) ;
#82 = ORIENTED_EDGE ( 'NONE', *, *, #188, .F. ) ;
#83 = COORDINATED_UNIVERSAL_TIME_OFFSET ( 1, 0, .AHEAD. ) ;
#84 = PERSON_AND_ORGANIZATION ( #205, #301 ) ;
#85 = PERSON_AND_ORGANIZATION_ROLE ( 'design_owner' ) ;
#86 = DATE_AND_TIME ( #274, #169 ) ;
#87 = DIRECTION ( 'NONE',  ( 3.491481338843133355E-15, -1.224646799147353207E-16, 1.000000000000000000 ) ) ;
#88 = CYLINDRICAL_SURFACE ( 'NONE', #206, 0.7734999999999995213 ) ;
#89 = APPROVAL ( #24, 'UNSPECIFIED' ) ;
#90 = CONICAL_SURFACE ( 'NONE', #96, 0.7734999999999999654, 0.5235987755982968173 ) ;
#91 = ORIENTED_EDGE ( 'NONE', *, *, #210, .F. ) ;
#92 = CARTESIAN_POINT ( 'NONE',  ( 0.0000000000000000000, 0.0000000000000000000, 0.0000000000000000000 ) ) ;
#93 = DIRECTION ( 'NONE',  ( 0.0000000000000000000, 1.000000000000000000, 0.0000000000000000000 ) ) ;
#94 = DIRECTION ( 'NONE',  ( 0.0000000000000000000, 1.000000000000000000, 0.0000000000000000000 ) ) ;
#95 = ORIENTED_EDGE ( 'NONE', *, *, #133, .F. ) ;
#96 = AXIS2_PLACEMENT_3D ( 'NONE', #47, #138, #93 ) ;
#97 = EDGE_CURVE ( 'NONE', #14, #14, #158, .T. ) ;
#98 = ORIENTED_EDGE ( 'NONE', *, *, #219, .F. ) ;
#99 = DIRECTION ( 'NONE',  ( -3.491481338843133355E-15, 1.224646799147353207E-16, -1.000000000000000000 ) ) ;
#100 = CYLINDRICAL_SURFACE ( 'NONE', #104, 0.6700000000000004841 ) ;
#101 = CC_DESIGN_PERSON_AND_ORGANIZATION_ASSIGNMENT ( #229, #85, ( #20 ) ) ;
#102 = FACE_OUTER_BOUND ( 'NONE', #166, .T. ) ;
#103 = FACE_OUTER_BOUND ( 'NONE', #144, .T. ) ;
#104 = AXIS2_PLACEMENT_3D ( 'NONE', #9, #217, #243 ) ;
#105 = DATE_AND_TIME ( #177, #57 ) ;
#106 = CARTESIAN_POINT ( 'NONE',  ( 6.941812510639767050E-14, -2.434860062649754866E-15, 19.88214123733471084 ) ) ;
#107 = CALENDAR_DATE ( 2021, 30, 11 ) ;
#108 = COORDINATED_UNIVERSAL_TIME_OFFSET ( 1, 0, .AHEAD. ) ;
#109 = EDGE_CURVE ( 'NONE', #118, #118, #40, .T. ) ;
#110 = PRODUCT_DEFINITION_SHAPE ( 'NONE', 'NONE',  #121 ) ;
#111 =( LENGTH_UNIT ( ) NAMED_UNIT ( * ) SI_UNIT ( .MILLI., .METRE. ) );
#112 = CALENDAR_DATE ( 2021, 30, 11 ) ;
#113 = MANIFOLD_SOLID_BREP ( 'Corps-Déplacer/Copier1[1]', #179 ) ;
#114 = FACE_OUTER_BOUND ( 'NONE', #34, .T. ) ;
#115 = PRODUCT_DEFINITION_FORMATION_WITH_SPECIFIED_SOURCE ( 'ANY', '', #20, .NOT_KNOWN. ) ;
#116 = CIRCLE ( 'NONE', #268, 0.6700000000000001510 ) ;
#117 = LOCAL_TIME ( 9, 32, 43.00000000000000000, #108 ) ;
#118 = VERTEX_POINT ( 'NONE', #12 ) ;
#119 = PLANE ( 'NONE',  #21 ) ;
#120 = EDGE_LOOP ( 'NONE', ( #227 ) ) ;
#121 = PRODUCT_DEFINITION ( 'UNKNOWN', '', #115, #257 ) ;
#122 = EDGE_LOOP ( 'NONE', ( #164 ) ) ;
#123 = EDGE_LOOP ( 'NONE', ( #82 ) ) ;
#124 = APPROVAL_DATE_TIME ( #203, #292 ) ;
#125 = AXIS2_PLACEMENT_3D ( 'NONE', #245, #79, #15 ) ;
#126 = LOCAL_TIME ( 9, 32, 43.00000000000000000, #130 ) ;
#127 = FACE_OUTER_BOUND ( 'NONE', #142, .T. ) ;
#128 = SECURITY_CLASSIFICATION_LEVEL ( 'unclassified' ) ;
#129 = APPROVAL ( #155, 'UNSPECIFIED' ) ;
#130 = COORDINATED_UNIVERSAL_TIME_OFFSET ( 1, 0, .AHEAD. ) ;
#131 = APPROVAL_ROLE ( '' ) ;
#132 = LOCAL_TIME ( 9, 32, 43.00000000000000000, #19 ) ;
#133 = EDGE_CURVE ( 'NONE', #6, #6, #45, .T. ) ;
#134 = ADVANCED_BREP_SHAPE_REPRESENTATION ( '63795', ( #113, #212, #193 ), #294 ) ;
#135 = CARTESIAN_POINT ( 'NONE',  ( -4.582928340709945218E-31, 1.607474873410538830E-32, -1.312602845595746770E-16 ) ) ;
#136 = AXIS2_PLACEMENT_3D ( 'NONE', #46, #185, #25 ) ;
#137 = FACE_OUTER_BOUND ( 'NONE', #187, .T. ) ;
#138 = DIRECTION ( 'NONE',  ( -3.491481338843133355E-15, 1.224646799147353207E-16, -1.000000000000000000 ) ) ;
#139 = CARTESIAN_POINT ( 'NONE',  ( 2.444036937190193349E-14, -8.572527594031473190E-16, 7.000000000000000000 ) ) ;
#140 = EDGE_LOOP ( 'NONE', ( #259 ) ) ;
#141 = AXIS2_PLACEMENT_3D ( 'NONE', #289, #72, #170 ) ;
#142 = EDGE_LOOP ( 'NONE', ( #162 ) ) ;
#143 = CARTESIAN_POINT ( 'NONE',  ( 2.444036937190193349E-14, 0.7734999999999990772, 7.000000000000000000 ) ) ;
#144 = EDGE_LOOP ( 'NONE', ( #262 ) ) ;
#145 = VERTEX_POINT ( 'NONE', #196 ) ;
#146 = FACE_OUTER_BOUND ( 'NONE', #60, .T. ) ;
#147 = ORIENTED_EDGE ( 'NONE', *, *, #210, .T. ) ;
#148 = AXIS2_PLACEMENT_3D ( 'NONE', #208, #189, #3 ) ;
#149 = CC_DESIGN_APPROVAL ( #292, ( #121 ) ) ;
#150 = DIRECTION ( 'NONE',  ( -3.491481338843133355E-15, 1.224646799147353207E-16, -1.000000000000000000 ) ) ;
#151 = DIRECTION ( 'NONE',  ( 0.0000000000000000000, 1.000000000000000000, 0.0000000000000000000 ) ) ;
#152 = COORDINATED_UNIVERSAL_TIME_OFFSET ( 1, 0, .AHEAD. ) ;
#153 = DIRECTION ( 'NONE',  ( -3.491481338843133355E-15, 1.224646799147353207E-16, -1.000000000000000000 ) ) ;
#154 = AXIS2_PLACEMENT_3D ( 'NONE', #156, #87, #157 ) ;
#155 = APPROVAL_STATUS ( 'not_yet_approved' ) ;
#156 = CARTESIAN_POINT ( 'NONE',  ( 2.444036937190193349E-14, 5.800320959444721353E-33, 7.000000000000000000 ) ) ;
#157 = DIRECTION ( 'NONE',  ( -4.275831445896958607E-31, -1.000000000000000000, -1.224646799147353207E-16 ) ) ;
#158 = CIRCLE ( 'NONE', #280, 1.200000000000001732 ) ;
#159 = APPROVAL_PERSON_ORGANIZATION ( #39, #292, #131 ) ;
#160 = FACE_BOUND ( 'NONE', #8, .T. ) ;
#161 = DIRECTION ( 'NONE',  ( -3.491481338843133355E-15, 1.224646799147353207E-16, -1.000000000000000000 ) ) ;
#162 = ORIENTED_EDGE ( 'NONE', *, *, #44, .T. ) ;
#163 = CARTESIAN_POINT ( 'NONE',  ( 1.745740669421566678E-13, 8.998558695971067645E-33, 50.00000000000000000 ) ) ;
#164 = ORIENTED_EDGE ( 'NONE', *, *, #109, .T. ) ;
#165 = ADVANCED_FACE ( 'NONE', ( #172 ), #119, .F. ) ;
#166 = EDGE_LOOP ( 'NONE', ( #216 ) ) ;
#167 = VERTEX_POINT ( 'NONE', #143 ) ;
#168 = UNCERTAINTY_MEASURE_WITH_UNIT (LENGTH_MEASURE( 1.000000000000000082E-05 ), #111, 'distance_accuracy_value', 'NONE');
#169 = LOCAL_TIME ( 9, 32, 43.00000000000000000, #83 ) ;
#170 = DIRECTION ( 'NONE',  ( 0.0000000000000000000, 1.000000000000000000, 0.0000000000000000000 ) ) ;
#171 = EDGE_LOOP ( 'NONE', ( #98 ) ) ;
#172 = FACE_OUTER_BOUND ( 'NONE', #256, .T. ) ;
#173 = ORIENTED_EDGE ( 'NONE', *, *, #97, .F. ) ;
#174 = FACE_OUTER_BOUND ( 'NONE', #140, .T. ) ;
#175 = PERSON_AND_ORGANIZATION ( #205, #301 ) ;
#176 = FACE_OUTER_BOUND ( 'NONE', #239, .T. ) ;
#177 = CALENDAR_DATE ( 2021, 30, 11 ) ;
#178 = CARTESIAN_POINT ( 'NONE',  ( 2.444036937190193349E-14, -8.572527594031473190E-16, 7.000000000000000000 ) ) ;
#179 = CLOSED_SHELL ( 'NONE', ( #264, #282, #300, #241, #254, #224, #231, #165 ) ) ;
#180 = EDGE_LOOP ( 'NONE', ( #54 ) ) ;
#181 = APPROVAL_ROLE ( '' ) ;
#182 = DATE_AND_TIME ( #202, #132 ) ;
#183 = CARTESIAN_POINT ( 'NONE',  ( 5.237222008264700033E-14, 0.6699999999999982636, 15.00000000000000000 ) ) ;
#184 = CIRCLE ( 'NONE', #233, 0.7003844939755811128 ) ;
#185 = DIRECTION ( 'NONE',  ( 3.491481338843133355E-15, -1.224646799147353207E-16, 1.000000000000000000 ) ) ;
#186 = EDGE_CURVE ( 'NONE', #145, #145, #184, .T. ) ;
#187 = EDGE_LOOP ( 'NONE', ( #58 ) ) ;
#188 = EDGE_CURVE ( 'NONE', #192, #192, #35, .T. ) ;
#189 = DIRECTION ( 'NONE',  ( 3.491481338843133355E-15, -1.224646799147353207E-16, 1.000000000000000000 ) ) ;
#190 = CARTESIAN_POINT ( 'NONE',  ( 2.444036937190193349E-14, 0.7734999999999990772, 7.000000000000000000 ) ) ;
#191 = DIRECTION ( 'NONE',  ( 0.0000000000000000000, 1.000000000000000000, 0.0000000000000000000 ) ) ;
#192 = VERTEX_POINT ( 'NONE', #288 ) ;
#193 = AXIS2_PLACEMENT_3D ( 'NONE', #275, #59, #17 ) ;
#194 = EDGE_LOOP ( 'NONE', ( #91 ) ) ;
#195 = CC_DESIGN_PERSON_AND_ORGANIZATION_ASSIGNMENT ( #270, #42, ( #281 ) ) ;
#196 = CARTESIAN_POINT ( 'NONE',  ( 5.358479882634335789E-14, 0.7003844939755792254, 15.34729635533384595 ) ) ;
#197 = AXIS2_PLACEMENT_3D ( 'NONE', #178, #250, #151 ) ;
#198 = CC_DESIGN_APPROVAL ( #89, ( #281 ) ) ;
#199 = CYLINDRICAL_SURFACE ( 'NONE', #237, 1.499999999999998890 ) ;
#200 = DATE_AND_TIME ( #107, #126 ) ;
#201 = FACE_BOUND ( 'NONE', #51, .T. ) ;
#202 = CALENDAR_DATE ( 2021, 30, 11 ) ;
#203 = DATE_AND_TIME ( #112, #117 ) ;
#204 = CC_DESIGN_APPROVAL ( #129, ( #115 ) ) ;
#205 = PERSON ( 'UNSPECIFIED', 'UNSPECIFIED', 'UNSPECIFIED', ('UNSPECIFIED'), ('UNSPECIFIED'), ('UNSPECIFIED') ) ;
#206 = AXIS2_PLACEMENT_3D ( 'NONE', #92, #266, #234 ) ;
#207 = FACE_OUTER_BOUND ( 'NONE', #236, .T. ) ;
#208 = CARTESIAN_POINT ( 'NONE',  ( -2.291464170354972609E-31, 8.037374367052694151E-33, -6.563014227978733851E-17 ) ) ;
#209 = CC_DESIGN_DATE_AND_TIME_ASSIGNMENT ( #182, #253, ( #121 ) ) ;
#210 = EDGE_CURVE ( 'NONE', #291, #291, #260, .T. ) ;
#211 = CIRCLE ( 'NONE', #283, 1.499999999999996447 ) ;
#212 = MANIFOLD_SOLID_BREP ( 'Corps-Déplacer/Copier1[2]', #26 ) ;
#213 = DIRECTION ( 'NONE',  ( -3.491481338843133355E-15, 1.224646799147353207E-16, -1.000000000000000000 ) ) ;
#214 = CARTESIAN_POINT ( 'NONE',  ( 1.745740669421566678E-13, 1.199999999999995515, 50.00000000000000000 ) ) ;
#215 = DIRECTION ( 'NONE',  ( -3.491481338843133355E-15, 1.224646799147353207E-16, -1.000000000000000000 ) ) ;
#216 = ORIENTED_EDGE ( 'NONE', *, *, #285, .T. ) ;
#217 = DIRECTION ( 'NONE',  ( -3.491481338843133355E-15, 1.224646799147353207E-16, -1.000000000000000000 ) ) ;
#218 = DIRECTION ( 'NONE',  ( 4.979780075985101891E-31, 1.000000000000000000, 1.401683480912095321E-16 ) ) ;
#219 = EDGE_CURVE ( 'NONE', #167, #167, #11, .T. ) ;
#220 = CARTESIAN_POINT ( 'NONE',  ( 6.941812510639767050E-14, 1.499999999999994005, 19.88214123733471084 ) ) ;
#221 = DIRECTION ( 'NONE',  ( 4.275831445896958607E-31, 1.000000000000000000, 1.224646799147353454E-16 ) ) ;
#222 = VERTEX_POINT ( 'NONE', #220 ) ;
#223 = CARTESIAN_POINT ( 'NONE',  ( 0.0000000000000000000, 0.0000000000000000000, 0.0000000000000000000 ) ) ;
#224 = ADVANCED_FACE ( 'NONE', ( #176, #38 ), #199, .T. ) ;
#225 =( NAMED_UNIT ( * ) SI_UNIT ( $, .STERADIAN. ) SOLID_ANGLE_UNIT ( ) );
#226 = FACE_BOUND ( 'NONE', #180, .T. ) ;
#227 = ORIENTED_EDGE ( 'NONE', *, *, #109, .F. ) ;
#228 = PERSON_AND_ORGANIZATION ( #205, #301 ) ;
#229 = PERSON_AND_ORGANIZATION ( #205, #301 ) ;
#230 = CONICAL_SURFACE ( 'NONE', #43, 1.499999999999996447, 0.1745329251994260367 ) ;
#231 = ADVANCED_FACE ( 'NONE', ( #77, #296 ), #271, .T. ) ;
#232 = DATE_TIME_ROLE ( 'classification_date' ) ;
#233 = AXIS2_PLACEMENT_3D ( 'NONE', #31, #215, #191 ) ;
#234 = DIRECTION ( 'NONE',  ( 4.275831445896958607E-31, 1.000000000000000000, 1.224646799147353207E-16 ) ) ;
#235 = DIRECTION ( 'NONE',  ( -3.491481338843133355E-15, 1.224646799147353207E-16, -1.000000000000000000 ) ) ;
#236 = EDGE_LOOP ( 'NONE', ( #95 ) ) ;
#237 = AXIS2_PLACEMENT_3D ( 'NONE', #223, #99, #221 ) ;
#238 = DIRECTION ( 'NONE',  ( 4.275831445896958607E-31, 1.000000000000000000, 1.224646799147353207E-16 ) ) ;
#239 = EDGE_LOOP ( 'NONE', ( #76 ) ) ;
#240 = CARTESIAN_POINT ( 'NONE',  ( -1.892735826383161794E-31, 0.6291624327025946428, -5.421010862427522170E-17 ) ) ;
#241 = ADVANCED_FACE ( 'NONE', ( #103, #174 ), #78, .F. ) ;
#242 = DIRECTION ( 'NONE',  ( 0.0000000000000000000, 1.000000000000000000, 0.0000000000000000000 ) ) ;
#243 = DIRECTION ( 'NONE',  ( 4.275831445896958607E-31, 1.000000000000000000, 1.224646799147353207E-16 ) ) ;
#244 = DIRECTION ( 'NONE',  ( 3.491481338843133355E-15, -1.224646799147353207E-16, 1.000000000000000000 ) ) ;
#245 = CARTESIAN_POINT ( 'NONE',  ( 1.745740669421566678E-13, -6.123233995736766085E-15, 50.00000000000000000 ) ) ;
#246 = FACE_OUTER_BOUND ( 'NONE', #267, .T. ) ;
#247 = MECHANICAL_CONTEXT ( 'NONE', #65, 'mechanical' ) ;
#248 = DIRECTION ( 'NONE',  ( 4.275831445896958607E-31, 1.000000000000000000, 1.224646799147353207E-16 ) ) ;
#249 = CONICAL_SURFACE ( 'NONE', #29, 0.7734999999999990772, 0.5235987755982930425 ) ;
#250 = DIRECTION ( 'NONE',  ( -3.491481338843133355E-15, 1.224646799147353207E-16, -1.000000000000000000 ) ) ;
#251 = CC_DESIGN_PERSON_AND_ORGANIZATION_ASSIGNMENT ( #295, #81, ( #121 ) ) ;
#252 = CIRCLE ( 'NONE', #56, 0.6291624327025946428 ) ;
#253 = DATE_TIME_ROLE ( 'creation_date' ) ;
#254 = ADVANCED_FACE ( 'NONE', ( #226, #127 ), #230, .T. ) ;
#255 = CARTESIAN_POINT ( 'NONE',  ( 1.745740669421566678E-13, -6.123233995736766085E-15, 50.00000000000000000 ) ) ;
#256 = EDGE_LOOP ( 'NONE', ( #173 ) ) ;
#257 = DESIGN_CONTEXT ( 'detailed design', #75, 'design' ) ;
#258 = DIRECTION ( 'NONE',  ( -3.491481338843133355E-15, 1.224646799147353207E-16, -1.000000000000000000 ) ) ;
#259 = ORIENTED_EDGE ( 'NONE', *, *, #186, .T. ) ;
#260 = CIRCLE ( 'NONE', #61, 0.7734999999999990772 ) ;
#261 = DIRECTION ( 'NONE',  ( -3.491481338843133355E-15, 1.224646799147353207E-16, -1.000000000000000000 ) ) ;
#262 = ORIENTED_EDGE ( 'NONE', *, *, #285, .F. ) ;
#263 = CC_DESIGN_PERSON_AND_ORGANIZATION_ASSIGNMENT ( #84, #62, ( #115 ) ) ;
#264 = ADVANCED_FACE ( 'NONE', ( #114 ), #68, .F. ) ;
#265 = DIRECTION ( 'NONE',  ( 0.0000000000000000000, 1.000000000000000000, 0.0000000000000000000 ) ) ;
#266 = DIRECTION ( 'NONE',  ( -3.491481338843133355E-15, 1.224646799147353207E-16, -1.000000000000000000 ) ) ;
#267 = EDGE_LOOP ( 'NONE', ( #147 ) ) ;
#268 = AXIS2_PLACEMENT_3D ( 'NONE', #33, #150, #265 ) ;
#269 = CC_DESIGN_PERSON_AND_ORGANIZATION_ASSIGNMENT ( #175, #302, ( #115 ) ) ;
#270 = PERSON_AND_ORGANIZATION ( #205, #301 ) ;
#271 = CONICAL_SURFACE ( 'NONE', #125, 1.200000000000001732, 0.7853981633974453924 ) ;
#272 = DIRECTION ( 'NONE',  ( 0.0000000000000000000, -1.000000000000000000, 0.0000000000000000000 ) ) ;
#273 = ADVANCED_FACE ( 'NONE', ( #207 ), #67, .T. ) ;
#274 = CALENDAR_DATE ( 2021, 30, 11 ) ;
#275 = CARTESIAN_POINT ( 'NONE',  ( 0.0000000000000000000, 0.0000000000000000000, 0.0000000000000000000 ) ) ;
#276 = APPLICATION_PROTOCOL_DEFINITION ( 'international standard', 'config_control_design', 1994, #75 ) ;
#277 = SHAPE_DEFINITION_REPRESENTATION ( #110, #134 ) ;
#278 = CC_DESIGN_DATE_AND_TIME_ASSIGNMENT ( #200, #232, ( #281 ) ) ;
#279 = EDGE_CURVE ( 'NONE', #52, #52, #252, .T. ) ;
#280 = AXIS2_PLACEMENT_3D ( 'NONE', #255, #1, #94 ) ;
#281 = SECURITY_CLASSIFICATION ( '', '', #128 ) ;
#282 = ADVANCED_FACE ( 'NONE', ( #160, #284 ), #90, .T. ) ;
#283 = AXIS2_PLACEMENT_3D ( 'NONE', #7, #161, #242 ) ;
#284 = FACE_OUTER_BOUND ( 'NONE', #171, .T. ) ;
#285 = EDGE_CURVE ( 'NONE', #74, #74, #116, .T. ) ;
#286 = ORIENTED_EDGE ( 'NONE', *, *, #97, .T. ) ;
#287 = ORIENTED_EDGE ( 'NONE', *, *, #188, .T. ) ;
#288 = CARTESIAN_POINT ( 'NONE',  ( 2.506627765991136237E-14, 0.6700000000000000400, 7.179267258583378108 ) ) ;
#289 = CARTESIAN_POINT ( 'NONE',  ( 2.506627765991136237E-14, -8.792066668447528551E-16, 7.179267258583378108 ) ) ;
#290 = AXIS2_PLACEMENT_3D ( 'NONE', #16, #153, #248 ) ;
#291 = VERTEX_POINT ( 'NONE', #71 ) ;
#292 = APPROVAL ( #63, 'UNSPECIFIED' ) ;
#293 = FACE_OUTER_BOUND ( 'NONE', #194, .T. ) ;
#294 =( GEOMETRIC_REPRESENTATION_CONTEXT ( 3 ) GLOBAL_UNCERTAINTY_ASSIGNED_CONTEXT ( ( #168 ) ) GLOBAL_UNIT_ASSIGNED_CONTEXT ( ( #111, #66, #225 ) ) REPRESENTATION_CONTEXT ( 'NONE', 'WORKASPACE' ) );
#295 = PERSON_AND_ORGANIZATION ( #205, #301 ) ;
#296 = FACE_BOUND ( 'NONE', #69, .T. ) ;
#297 = APPLICATION_PROTOCOL_DEFINITION ( 'international standard', 'config_control_design', 1994, #65 ) ;
#298 = DIRECTION ( 'NONE',  ( 3.491481338843133355E-15, -1.224646799147353207E-16, 1.000000000000000000 ) ) ;
#299 = PRODUCT_RELATED_PRODUCT_CATEGORY ( 'detail', '', ( #20 ) ) ;
#300 = ADVANCED_FACE ( 'NONE', ( #102, #37 ), #100, .T. ) ;
#301 = ORGANIZATION ( 'UNSPECIFIED', 'UNSPECIFIED', '' ) ;
#302 = PERSON_AND_ORGANIZATION_ROLE ( 'creator' ) ;
#303 = APPROVAL_ROLE ( '' ) ;
ENDSEC;
END-ISO-10303-21;
