ISO-10303-21;
HEADER;
FILE_DESCRIPTION (( 'STEP AP203' ),
    '1' );
FILE_NAME ('63758.step',
    '2021-09-21T07:46:59',
    ( '' ),
    ( '' ),
    'SwSTEP 2.0',
    'SolidWorks 2019',
    '' );
FILE_SCHEMA (( 'CONFIG_CONTROL_DESIGN' ));
ENDSEC;

DATA;
#1 = FACE_OUTER_BOUND ( 'NONE', #133, .T. ) ;
#2 = EDGE_CURVE ( 'NONE', #253, #34, #140, .T. ) ;
#3 = LOCAL_TIME ( 9, 46, 59.00000000000000000, #157 ) ;
#4 = COORDINATED_UNIVERSAL_TIME_OFFSET ( 1, 0, .AHEAD. ) ;
#5 = ORIENTED_EDGE ( 'NONE', *, *, #165, .T. ) ;
#6 = CARTESIAN_POINT ( 'NONE',  ( 2.199633243471174140E-13, 2.399615652258961499E-32, 63.00000000000000000 ) ) ;
#7 = CC_DESIGN_DATE_AND_TIME_ASSIGNMENT ( #62, #182, ( #259 ) ) ;
#8 = VECTOR ( 'NONE', #89, 1000.000000000000000 ) ;
#9 = CC_DESIGN_APPROVAL ( #239, ( #96 ) ) ;
#10 = DIRECTION ( 'NONE',  ( 2.468850131082278754E-15, -0.7071067811865437980, 0.7071067811865513475 ) ) ;
#11 = DIRECTION ( 'NONE',  ( 3.491481338843133355E-15, -1.224646799147353207E-16, 1.000000000000000000 ) ) ;
#12 = DIRECTION ( 'NONE',  ( 4.275831445896957731E-31, 1.000000000000000000, 1.224646799147353207E-16 ) ) ;
#13 = APPLICATION_PROTOCOL_DEFINITION ( 'international standard', 'config_control_design', 1994, #42 ) ;
#14 = DIRECTION ( 'NONE',  ( -3.491481338843133355E-15, 1.224646799147353207E-16, -1.000000000000000000 ) ) ;
#15 = CARTESIAN_POINT ( 'NONE',  ( 2.199633243471174140E-13, 3.199999999999993072, 63.00000000000000000 ) ) ;
#16 = PERSON_AND_ORGANIZATION ( #162, #193 ) ;
#17 = DIRECTION ( 'NONE',  ( -3.491481338843133355E-15, 1.224646799147353207E-16, -1.000000000000000000 ) ) ;
#18 = DIRECTION ( 'NONE',  ( -3.491481338843133355E-15, 1.224646799147353207E-16, -1.000000000000000000 ) ) ;
#19 = CARTESIAN_POINT ( 'NONE',  ( 2.203552113228445614E-13, -3.200000000000008615, 63.00000000000000000 ) ) ;
#20 = APPROVAL_DATE_TIME ( #53, #239 ) ;
#21 = EDGE_CURVE ( 'NONE', #136, #41, #147, .T. ) ;
#22 = VERTEX_POINT ( 'NONE', #121 ) ;
#23 = APPROVAL ( #266, 'UNSPECIFIED' ) ;
#24 = CONICAL_SURFACE ( 'NONE', #67, 3.999999999999994227, 0.7853981633974428389 ) ;
#25 = DIRECTION ( 'NONE',  ( -4.275831445896958607E-31, -1.000000000000000000, -1.224646799147353207E-16 ) ) ;
#26 = CARTESIAN_POINT ( 'NONE',  ( 1.396592535537267542E-14, -8.673617379884126191E-16, 4.000000000000040856 ) ) ;
#27 = AXIS2_PLACEMENT_3D ( 'NONE', #66, #122, #214 ) ;
#28 = ADVANCED_FACE ( 'NONE', ( #98 ), #24, .T. ) ;
#29 = CARTESIAN_POINT ( 'NONE',  ( 1.396592535537265964E-14, -3.999999999999994671, 4.000000000000036415 ) ) ;
#30 = AXIS2_PLACEMENT_3D ( 'NONE', #141, #227, #230 ) ;
#31 = CYLINDRICAL_SURFACE ( 'NONE', #149, 3.999999999999997335 ) ;
#32 = CARTESIAN_POINT ( 'NONE',  ( 1.396592535537267542E-14, -8.673617379884126191E-16, 4.000000000000040856 ) ) ;
#33 = ORIENTED_EDGE ( 'NONE', *, *, #116, .F. ) ;
#34 = VERTEX_POINT ( 'NONE', #29 ) ;
#35 = DIRECTION ( 'NONE',  ( -3.491481338843133355E-15, 1.224646799147353207E-16, -1.000000000000000000 ) ) ;
#36 = DIRECTION ( 'NONE',  ( 0.0000000000000000000, 1.000000000000000000, 0.0000000000000000000 ) ) ;
#37 = AXIS2_PLACEMENT_3D ( 'NONE', #57, #17, #110 ) ;
#38 = ADVANCED_FACE ( 'NONE', ( #194 ), #31, .T. ) ;
#39 = PERSON_AND_ORGANIZATION_ROLE ( 'creator' ) ;
#40 = PERSON_AND_ORGANIZATION_ROLE ( 'design_owner' ) ;
#41 = VERTEX_POINT ( 'NONE', #125 ) ;
#42 = APPLICATION_CONTEXT ( 'configuration controlled 3d designs of mechanical parts and assemblies' ) ;
#43 = DIRECTION ( 'NONE',  ( -3.491481338843133355E-15, 1.224646799147353207E-16, -1.000000000000000000 ) ) ;
#44 = VECTOR ( 'NONE', #84, 999.9999999999998863 ) ;
#45 = CC_DESIGN_SECURITY_CLASSIFICATION ( #96, ( #236 ) ) ;
#46 = VERTEX_POINT ( 'NONE', #282 ) ;
#47 = ORIENTED_EDGE ( 'NONE', *, *, #228, .F. ) ;
#48 = PRODUCT ( '63758', '63758', '', ( #134 ) ) ;
#49 = FACE_OUTER_BOUND ( 'NONE', #85, .T. ) ;
#50 = CONICAL_SURFACE ( 'NONE', #181, 3.200000000000001066, 0.7853981633974426169 ) ;
#51 = CYLINDRICAL_SURFACE ( 'NONE', #274, 3.999999999999997335 ) ;
#52 = DIRECTION ( 'NONE',  ( 0.0000000000000000000, 1.000000000000000000, 0.0000000000000000000 ) ) ;
#53 = DATE_AND_TIME ( #222, #176 ) ;
#54 = VECTOR ( 'NONE', #233, 1000.000000000000000 ) ;
#55 = PERSON_AND_ORGANIZATION_ROLE ( 'creator' ) ;
#56 = APPROVAL_DATE_TIME ( #287, #23 ) ;
#57 = CARTESIAN_POINT ( 'NONE',  ( 1.396592535537266279E-14, -4.898587196589459174E-16, 4.000000000000037303 ) ) ;
#58 = ADVANCED_FACE ( 'NONE', ( #99 ), #50, .T. ) ;
#59 = APPROVAL_STATUS ( 'not_yet_approved' ) ;
#60 = ORIENTED_EDGE ( 'NONE', *, *, #127, .T. ) ;
#61 = CIRCLE ( 'NONE', #73, 3.999999999999994227 ) ;
#62 = DATE_AND_TIME ( #286, #70 ) ;
#63 = ADVANCED_FACE ( 'NONE', ( #191 ), #51, .T. ) ;
#64 = ORIENTED_EDGE ( 'NONE', *, *, #284, .T. ) ;
#65 = DIRECTION ( 'NONE',  ( -7.703719777548954798E-31, -1.000000000000000000, -2.168404344971012073E-16 ) ) ;
#66 = CARTESIAN_POINT ( 'NONE',  ( 1.396592535537266279E-14, -4.898587196589459174E-16, 4.000000000000037303 ) ) ;
#67 = AXIS2_PLACEMENT_3D ( 'NONE', #235, #11, #72 ) ;
#68 = CC_DESIGN_PERSON_AND_ORGANIZATION_ASSIGNMENT ( #178, #154, ( #236 ) ) ;
#69 = CIRCLE ( 'NONE', #27, 3.999999999999994227 ) ;
#70 = LOCAL_TIME ( 9, 46, 59.00000000000000000, #175 ) ;
#71 = CC_DESIGN_PERSON_AND_ORGANIZATION_ASSIGNMENT ( #16, #40, ( #48 ) ) ;
#72 = DIRECTION ( 'NONE',  ( -7.703719777548954798E-31, -1.000000000000000000, -2.168404344971012073E-16 ) ) ;
#73 = AXIS2_PLACEMENT_3D ( 'NONE', #276, #160, #251 ) ;
#74 =( NAMED_UNIT ( * ) PLANE_ANGLE_UNIT ( ) SI_UNIT ( $, .RADIAN. ) );
#75 = ORIENTED_EDGE ( 'NONE', *, *, #220, .T. ) ;
#76 = APPLICATION_CONTEXT ( 'configuration controlled 3d designs of mechanical parts and assemblies' ) ;
#77 = CARTESIAN_POINT ( 'NONE',  ( 4.898587196589393107E-16, -3.999999999999997335, -4.898587196589425648E-16 ) ) ;
#78 = EDGE_LOOP ( 'NONE', ( #206, #47 ) ) ;
#79 = EDGE_CURVE ( 'NONE', #113, #152, #219, .T. ) ;
#80 = DIRECTION ( 'NONE',  ( 4.275831445896957731E-31, 1.000000000000000000, 1.224646799147353207E-16 ) ) ;
#81 = CARTESIAN_POINT ( 'NONE',  ( 1.445578407503160654E-14, 3.999999999999993339, 4.000000000000038192 ) ) ;
#82 = FACE_OUTER_BOUND ( 'NONE', #78, .T. ) ;
#83 = PERSON_AND_ORGANIZATION_ROLE ( 'classification_officer' ) ;
#84 = DIRECTION ( 'NONE',  ( -2.382254525458730880E-15, -0.7071067811865434649, -0.7071067811865516806 ) ) ;
#85 = EDGE_LOOP ( 'NONE', ( #267, #143 ) ) ;
#86 = AXIS2_PLACEMENT_3D ( 'NONE', #158, #43, #223 ) ;
#87 = APPROVAL_ROLE ( '' ) ;
#88 = ORIENTED_EDGE ( 'NONE', *, *, #220, .F. ) ;
#89 = DIRECTION ( 'NONE',  ( -2.468850131082279149E-15, 0.7071067811865435759, -0.7071067811865514585 ) ) ;
#90 = ORIENTED_EDGE ( 'NONE', *, *, #249, .F. ) ;
#91 = DIRECTION ( 'NONE',  ( -3.491481338843133355E-15, 1.224646799147353207E-16, -1.000000000000000000 ) ) ;
#92 = CLOSED_SHELL ( 'NONE', ( #28, #146, #93 ) ) ;
#93 = ADVANCED_FACE ( 'NONE', ( #82 ), #155, .T. ) ;
#94 = EDGE_LOOP ( 'NONE', ( #33, #281, #60, #120 ) ) ;
#95 = CC_DESIGN_PERSON_AND_ORGANIZATION_ASSIGNMENT ( #130, #55, ( #236 ) ) ;
#96 = SECURITY_CLASSIFICATION ( '', '', #240 ) ;
#97 = DIRECTION ( 'NONE',  ( -3.491481338843133355E-15, 1.224646799147353207E-16, -1.000000000000000000 ) ) ;
#98 = FACE_OUTER_BOUND ( 'NONE', #183, .T. ) ;
#99 = FACE_OUTER_BOUND ( 'NONE', #94, .T. ) ;
#100 = AXIS2_PLACEMENT_3D ( 'NONE', #26, #117, #25 ) ;
#101 = CARTESIAN_POINT ( 'NONE',  ( 2.199633243471174140E-13, 3.199999999999993072, 63.00000000000000000 ) ) ;
#102 = CARTESIAN_POINT ( 'NONE',  ( 2.199633243471174140E-13, -7.715274834628325378E-15, 63.00000000000000000 ) ) ;
#103 = ORIENTED_EDGE ( 'NONE', *, *, #171, .T. ) ;
#104 = APPROVAL_ROLE ( '' ) ;
#105 = CIRCLE ( 'NONE', #37, 3.999999999999994227 ) ;
#106 = ORIENTED_EDGE ( 'NONE', *, *, #187, .F. ) ;
#107 = DIRECTION ( 'NONE',  ( 0.0000000000000000000, 1.000000000000000000, 0.0000000000000000000 ) ) ;
#108 =( GEOMETRIC_REPRESENTATION_CONTEXT ( 3 ) GLOBAL_UNCERTAINTY_ASSIGNED_CONTEXT ( ( #217 ) ) GLOBAL_UNIT_ASSIGNED_CONTEXT ( ( #213, #74, #254 ) ) REPRESENTATION_CONTEXT ( 'NONE', 'WORKASPACE' ) );
#109 = DATE_AND_TIME ( #153, #263 ) ;
#110 = DIRECTION ( 'NONE',  ( 7.703719777548954798E-31, 1.000000000000000000, 2.168404344971012073E-16 ) ) ;
#111 = CARTESIAN_POINT ( 'NONE',  ( 0.0000000000000000000, 0.0000000000000000000, 0.0000000000000000000 ) ) ;
#112 = APPLICATION_PROTOCOL_DEFINITION ( 'international standard', 'config_control_design', 1994, #76 ) ;
#113 = VERTEX_POINT ( 'NONE', #15 ) ;
#114 = AXIS2_PLACEMENT_3D ( 'NONE', #184, #203, #65 ) ;
#115 = FACE_OUTER_BOUND ( 'NONE', #225, .T. ) ;
#116 = EDGE_CURVE ( 'NONE', #152, #136, #132, .T. ) ;
#117 = DIRECTION ( 'NONE',  ( 3.491481338843133355E-15, -1.224646799147353207E-16, 1.000000000000000000 ) ) ;
#118 = AXIS2_PLACEMENT_3D ( 'NONE', #195, #172, #210 ) ;
#119 = CARTESIAN_POINT ( 'NONE',  ( 2.171701392760428568E-13, -7.617303090696535366E-15, 62.19999999999998863 ) ) ;
#120 = ORIENTED_EDGE ( 'NONE', *, *, #171, .F. ) ;
#121 = CARTESIAN_POINT ( 'NONE',  ( 2.171701392760428568E-13, 3.999999999999993339, 62.19999999999998863 ) ) ;
#122 = DIRECTION ( 'NONE',  ( -3.491481338843133355E-15, 1.224646799147353207E-16, -1.000000000000000000 ) ) ;
#123 = CC_DESIGN_DATE_AND_TIME_ASSIGNMENT ( #109, #156, ( #96 ) ) ;
#124 = EDGE_LOOP ( 'NONE', ( #169, #201, #90, #135 ) ) ;
#125 = CARTESIAN_POINT ( 'NONE',  ( 1.160578910353666357E-13, -3.999999999999994671, 4.000000000000036415 ) ) ;
#126 = LINE ( 'NONE', #101, #8 ) ;
#127 = EDGE_CURVE ( 'NONE', #113, #22, #126, .T. ) ;
#128 = DIRECTION ( 'NONE',  ( 1.000000000000000000, 0.0000000000000000000, 0.0000000000000000000 ) ) ;
#129 = DESIGN_CONTEXT ( 'detailed design', #42, 'design' ) ;
#130 = PERSON_AND_ORGANIZATION ( #162, #193 ) ;
#131 = LOCAL_TIME ( 9, 46, 59.00000000000000000, #244 ) ;
#132 = LINE ( 'NONE', #19, #44 ) ;
#133 = EDGE_LOOP ( 'NONE', ( #247, #279, #5 ) ) ;
#134 = MECHANICAL_CONTEXT ( 'NONE', #76, 'mechanical' ) ;
#135 = ORIENTED_EDGE ( 'NONE', *, *, #127, .F. ) ;
#136 = VERTEX_POINT ( 'NONE', #218 ) ;
#137 = CARTESIAN_POINT ( 'NONE',  ( 2.199633243471174140E-13, -7.715274834628325378E-15, 63.00000000000000000 ) ) ;
#138 = APPROVAL_PERSON_ORGANIZATION ( #185, #239, #199 ) ;
#139 = CIRCLE ( 'NONE', #285, 4.000000000000000888 ) ;
#140 = LINE ( 'NONE', #261, #215 ) ;
#141 = CARTESIAN_POINT ( 'NONE',  ( 1.396592535537266279E-14, -4.898587196589459174E-16, 4.000000000000037303 ) ) ;
#142 = MANIFOLD_SOLID_BREP ( 'Corps-Déplacer/Copier1[2]', #92 ) ;
#143 = ORIENTED_EDGE ( 'NONE', *, *, #231, .F. ) ;
#144 = MANIFOLD_SOLID_BREP ( 'Corps-Déplacer/Copier1[1]', #161 ) ;
#145 = APPROVAL_PERSON_ORGANIZATION ( #269, #212, #104 ) ;
#146 = ADVANCED_FACE ( 'NONE', ( #1 ), #166, .T. ) ;
#147 = LINE ( 'NONE', #77, #54 ) ;
#148 = DIRECTION ( 'NONE',  ( -3.491481338843133355E-15, 1.224646799147353207E-16, -1.000000000000000000 ) ) ;
#149 = AXIS2_PLACEMENT_3D ( 'NONE', #167, #257, #80 ) ;
#150 = APPROVAL_STATUS ( 'not_yet_approved' ) ;
#151 = ADVANCED_FACE ( 'NONE', ( #268 ), #277, .T. ) ;
#152 = VERTEX_POINT ( 'NONE', #198 ) ;
#153 = CALENDAR_DATE ( 2021, 21, 9 ) ;
#154 = PERSON_AND_ORGANIZATION_ROLE ( 'design_supplier' ) ;
#155 = PLANE ( 'NONE',  #211 ) ;
#156 = DATE_TIME_ROLE ( 'classification_date' ) ;
#157 = COORDINATED_UNIVERSAL_TIME_OFFSET ( 1, 0, .AHEAD. ) ;
#158 = CARTESIAN_POINT ( 'NONE',  ( 2.171701392760428568E-13, -7.617303090696535366E-15, 62.19999999999998863 ) ) ;
#159 = VECTOR ( 'NONE', #164, 1000.000000000000000 ) ;
#160 = DIRECTION ( 'NONE',  ( -3.491481338843133355E-15, 1.224646799147353207E-16, -1.000000000000000000 ) ) ;
#161 = CLOSED_SHELL ( 'NONE', ( #151, #38, #205, #63, #58, #224 ) ) ;
#162 = PERSON ( 'UNSPECIFIED', 'UNSPECIFIED', 'UNSPECIFIED', ('UNSPECIFIED'), ('UNSPECIFIED'), ('UNSPECIFIED') ) ;
#163 = ORIENTED_EDGE ( 'NONE', *, *, #187, .T. ) ;
#164 = DIRECTION ( 'NONE',  ( 2.555445736705828206E-15, 0.7071067811865435759, 0.7071067811865515695 ) ) ;
#165 = EDGE_CURVE ( 'NONE', #34, #46, #105, .T. ) ;
#166 = CONICAL_SURFACE ( 'NONE', #114, 3.999999999999994227, 0.7853981633974428389 ) ;
#167 = CARTESIAN_POINT ( 'NONE',  ( 0.0000000000000000000, 0.0000000000000000000, 0.0000000000000000000 ) ) ;
#168 = DIRECTION ( 'NONE',  ( 0.0000000000000000000, 1.000000000000000000, 0.0000000000000000000 ) ) ;
#169 = ORIENTED_EDGE ( 'NONE', *, *, #79, .T. ) ;
#170 = CARTESIAN_POINT ( 'NONE',  ( 0.0000000000000000000, 0.0000000000000000000, 0.0000000000000000000 ) ) ;
#171 = EDGE_CURVE ( 'NONE', #136, #22, #208, .T. ) ;
#172 = DIRECTION ( 'NONE',  ( -3.491481338843133355E-15, 1.224646799147353207E-16, -1.000000000000000000 ) ) ;
#173 = AXIS2_PLACEMENT_3D ( 'NONE', #102, #18, #36 ) ;
#174 = DIRECTION ( 'NONE',  ( 3.491481338843133355E-15, -1.224646799147353207E-16, 1.000000000000000000 ) ) ;
#175 = COORDINATED_UNIVERSAL_TIME_OFFSET ( 1, 0, .AHEAD. ) ;
#176 = LOCAL_TIME ( 9, 46, 59.00000000000000000, #242 ) ;
#177 = PERSON_AND_ORGANIZATION ( #162, #193 ) ;
#178 = PERSON_AND_ORGANIZATION ( #162, #193 ) ;
#179 = ORIENTED_EDGE ( 'NONE', *, *, #2, .F. ) ;
#180 = CC_DESIGN_PERSON_AND_ORGANIZATION_ASSIGNMENT ( #202, #39, ( #259 ) ) ;
#181 = AXIS2_PLACEMENT_3D ( 'NONE', #260, #35, #52 ) ;
#182 = DATE_TIME_ROLE ( 'creation_date' ) ;
#183 = EDGE_LOOP ( 'NONE', ( #179, #64, #272 ) ) ;
#184 = CARTESIAN_POINT ( 'NONE',  ( 1.396592535537266279E-14, -4.898587196589459174E-16, 4.000000000000037303 ) ) ;
#185 = PERSON_AND_ORGANIZATION ( #162, #193 ) ;
#186 = ADVANCED_BREP_SHAPE_REPRESENTATION ( '63758', ( #144, #142, #204 ), #108 ) ;
#187 = EDGE_CURVE ( 'NONE', #234, #41, #61, .T. ) ;
#188 = ORIENTED_EDGE ( 'NONE', *, *, #192, .F. ) ;
#189 = DIRECTION ( 'NONE',  ( 4.275831445896958607E-31, 1.000000000000000000, 1.224646799147353207E-16 ) ) ;
#190 = APPROVAL_PERSON_ORGANIZATION ( #177, #23, #87 ) ;
#191 = FACE_OUTER_BOUND ( 'NONE', #273, .T. ) ;
#192 = EDGE_CURVE ( 'NONE', #41, #234, #250, .T. ) ;
#193 = ORGANIZATION ( 'UNSPECIFIED', 'UNSPECIFIED', '' ) ;
#194 = FACE_OUTER_BOUND ( 'NONE', #232, .T. ) ;
#195 = CARTESIAN_POINT ( 'NONE',  ( 2.199633243471174140E-13, -7.715274834628325378E-15, 63.00000000000000000 ) ) ;
#196 = ORIENTED_EDGE ( 'NONE', *, *, #21, .T. ) ;
#197 = CALENDAR_DATE ( 2021, 21, 9 ) ;
#198 = CARTESIAN_POINT ( 'NONE',  ( 2.190076046592731920E-13, -3.200000000000008615, 63.00000000000000000 ) ) ;
#199 = APPROVAL_ROLE ( '' ) ;
#200 = SHAPE_DEFINITION_REPRESENTATION ( #275, #186 ) ;
#201 = ORIENTED_EDGE ( 'NONE', *, *, #116, .T. ) ;
#202 = PERSON_AND_ORGANIZATION ( #162, #193 ) ;
#203 = DIRECTION ( 'NONE',  ( 3.491481338843133355E-15, -1.224646799147353207E-16, 1.000000000000000000 ) ) ;
#204 = AXIS2_PLACEMENT_3D ( 'NONE', #111, #238, #128 ) ;
#205 = ADVANCED_FACE ( 'NONE', ( #115 ), #229, .F. ) ;
#206 = ORIENTED_EDGE ( 'NONE', *, *, #165, .F. ) ;
#207 = PLANE ( 'NONE',  #270 ) ;
#208 = CIRCLE ( 'NONE', #86, 4.000000000000000888 ) ;
#209 = LINE ( 'NONE', #252, #241 ) ;
#210 = DIRECTION ( 'NONE',  ( 0.0000000000000000000, 1.000000000000000000, 0.0000000000000000000 ) ) ;
#211 = AXIS2_PLACEMENT_3D ( 'NONE', #32, #174, #262 ) ;
#212 = APPROVAL ( #59, 'UNSPECIFIED' ) ;
#213 =( LENGTH_UNIT ( ) NAMED_UNIT ( * ) SI_UNIT ( .MILLI., .METRE. ) );
#214 = DIRECTION ( 'NONE',  ( 7.703719777548954798E-31, 1.000000000000000000, 2.168404344971012073E-16 ) ) ;
#215 = VECTOR ( 'NONE', #10, 1000.000000000000000 ) ;
#216 = APPROVAL_DATE_TIME ( #271, #212 ) ;
#217 = UNCERTAINTY_MEASURE_WITH_UNIT (LENGTH_MEASURE( 1.000000000000000082E-05 ), #213, 'distance_accuracy_value', 'NONE');
#218 = CARTESIAN_POINT ( 'NONE',  ( 1.160578910353665095E-13, -4.000000000000008882, 62.19999999999998863 ) ) ;
#219 = CIRCLE ( 'NONE', #173, 3.200000000000001066 ) ;
#220 = EDGE_CURVE ( 'NONE', #22, #234, #209, .T. ) ;
#221 = PERSON_AND_ORGANIZATION ( #162, #193 ) ;
#222 = CALENDAR_DATE ( 2021, 21, 9 ) ;
#223 = DIRECTION ( 'NONE',  ( 0.0000000000000000000, 1.000000000000000000, 0.0000000000000000000 ) ) ;
#224 = ADVANCED_FACE ( 'NONE', ( #49 ), #207, .F. ) ;
#225 = EDGE_LOOP ( 'NONE', ( #163, #245 ) ) ;
#226 = CC_DESIGN_APPROVAL ( #23, ( #236 ) ) ;
#227 = DIRECTION ( 'NONE',  ( -3.491481338843133355E-15, 1.224646799147353207E-16, -1.000000000000000000 ) ) ;
#228 = EDGE_CURVE ( 'NONE', #46, #34, #69, .T. ) ;
#229 = PLANE ( 'NONE',  #100 ) ;
#230 = DIRECTION ( 'NONE',  ( 7.703719777548954798E-31, 1.000000000000000000, 2.168404344971012073E-16 ) ) ;
#231 = EDGE_CURVE ( 'NONE', #152, #113, #237, .T. ) ;
#232 = EDGE_LOOP ( 'NONE', ( #243, #196, #106, #88 ) ) ;
#233 = DIRECTION ( 'NONE',  ( -3.491481338843133355E-15, 1.224646799147353207E-16, -1.000000000000000000 ) ) ;
#234 = VERTEX_POINT ( 'NONE', #283 ) ;
#235 = CARTESIAN_POINT ( 'NONE',  ( 1.396592535537266279E-14, -4.898587196589459174E-16, 4.000000000000037303 ) ) ;
#236 = PRODUCT_DEFINITION_FORMATION_WITH_SPECIFIED_SOURCE ( 'ANY', '', #48, .NOT_KNOWN. ) ;
#237 = CIRCLE ( 'NONE', #118, 3.200000000000001066 ) ;
#238 = DIRECTION ( 'NONE',  ( 0.0000000000000000000, 0.0000000000000000000, 1.000000000000000000 ) ) ;
#239 = APPROVAL ( #150, 'UNSPECIFIED' ) ;
#240 = SECURITY_CLASSIFICATION_LEVEL ( 'unclassified' ) ;
#241 = VECTOR ( 'NONE', #248, 1000.000000000000000 ) ;
#242 = COORDINATED_UNIVERSAL_TIME_OFFSET ( 1, 0, .AHEAD. ) ;
#243 = ORIENTED_EDGE ( 'NONE', *, *, #249, .T. ) ;
#244 = COORDINATED_UNIVERSAL_TIME_OFFSET ( 1, 0, .AHEAD. ) ;
#245 = ORIENTED_EDGE ( 'NONE', *, *, #192, .T. ) ;
#246 = AXIS2_PLACEMENT_3D ( 'NONE', #137, #14, #107 ) ;
#247 = ORIENTED_EDGE ( 'NONE', *, *, #284, .F. ) ;
#248 = DIRECTION ( 'NONE',  ( -3.491481338843133355E-15, 1.224646799147353207E-16, -1.000000000000000000 ) ) ;
#249 = EDGE_CURVE ( 'NONE', #22, #136, #139, .T. ) ;
#250 = CIRCLE ( 'NONE', #30, 3.999999999999994227 ) ;
#251 = DIRECTION ( 'NONE',  ( 7.703719777548954798E-31, 1.000000000000000000, 2.168404344971012073E-16 ) ) ;
#252 = CARTESIAN_POINT ( 'NONE',  ( 1.710332578358782041E-30, 3.999999999999997335, 4.898587196589409870E-16 ) ) ;
#253 = VERTEX_POINT ( 'NONE', #278 ) ;
#254 =( NAMED_UNIT ( * ) SI_UNIT ( $, .STERADIAN. ) SOLID_ANGLE_UNIT ( ) );
#255 = ORIENTED_EDGE ( 'NONE', *, *, #21, .F. ) ;
#256 = CC_DESIGN_APPROVAL ( #212, ( #259 ) ) ;
#257 = DIRECTION ( 'NONE',  ( -3.491481338843133355E-15, 1.224646799147353207E-16, -1.000000000000000000 ) ) ;
#258 = LINE ( 'NONE', #81, #159 ) ;
#259 = PRODUCT_DEFINITION ( 'UNKNOWN', '', #236, #129 ) ;
#260 = CARTESIAN_POINT ( 'NONE',  ( 2.199633243471174140E-13, -7.715274834628325378E-15, 63.00000000000000000 ) ) ;
#261 = CARTESIAN_POINT ( 'NONE',  ( 1.396592535537265964E-14, -3.999999999999994671, 4.000000000000036415 ) ) ;
#262 = DIRECTION ( 'NONE',  ( -4.275831445896958607E-31, -1.000000000000000000, -1.224646799147353207E-16 ) ) ;
#263 = LOCAL_TIME ( 9, 46, 59.00000000000000000, #4 ) ;
#264 = CALENDAR_DATE ( 2021, 21, 9 ) ;
#265 = CC_DESIGN_PERSON_AND_ORGANIZATION_ASSIGNMENT ( #221, #83, ( #96 ) ) ;
#266 = APPROVAL_STATUS ( 'not_yet_approved' ) ;
#267 = ORIENTED_EDGE ( 'NONE', *, *, #79, .F. ) ;
#268 = FACE_OUTER_BOUND ( 'NONE', #124, .T. ) ;
#269 = PERSON_AND_ORGANIZATION ( #162, #193 ) ;
#270 = AXIS2_PLACEMENT_3D ( 'NONE', #6, #91, #189 ) ;
#271 = DATE_AND_TIME ( #197, #3 ) ;
#272 = ORIENTED_EDGE ( 'NONE', *, *, #228, .T. ) ;
#273 = EDGE_LOOP ( 'NONE', ( #255, #103, #75, #188 ) ) ;
#274 = AXIS2_PLACEMENT_3D ( 'NONE', #170, #148, #12 ) ;
#275 = PRODUCT_DEFINITION_SHAPE ( 'NONE', 'NONE',  #259 ) ;
#276 = CARTESIAN_POINT ( 'NONE',  ( 1.396592535537266279E-14, -4.898587196589459174E-16, 4.000000000000037303 ) ) ;
#277 = CONICAL_SURFACE ( 'NONE', #246, 3.200000000000001066, 0.7853981633974426169 ) ;
#278 = CARTESIAN_POINT ( 'NONE',  ( 0.0000000000000000000, 0.0000000000000000000, 0.0000000000000000000 ) ) ;
#279 = ORIENTED_EDGE ( 'NONE', *, *, #2, .T. ) ;
#280 = PRODUCT_RELATED_PRODUCT_CATEGORY ( 'detail', '', ( #48 ) ) ;
#281 = ORIENTED_EDGE ( 'NONE', *, *, #231, .T. ) ;
#282 = CARTESIAN_POINT ( 'NONE',  ( 1.445578407503160654E-14, 3.999999999999993339, 4.000000000000038192 ) ) ;
#283 = CARTESIAN_POINT ( 'NONE',  ( 1.396592535537266595E-14, 3.999999999999993339, 4.000000000000038192 ) ) ;
#284 = EDGE_CURVE ( 'NONE', #253, #46, #258, .T. ) ;
#285 = AXIS2_PLACEMENT_3D ( 'NONE', #119, #97, #168 ) ;
#286 = CALENDAR_DATE ( 2021, 21, 9 ) ;
#287 = DATE_AND_TIME ( #264, #131 ) ;
ENDSEC;
END-ISO-10303-21;
