ISO-10303-21;
HEADER;
FILE_DESCRIPTION (( 'STEP AP203' ),
    '1' );
FILE_NAME ('63757.step',
    '2021-09-21T07:46:58',
    ( '' ),
    ( '' ),
    'SwSTEP 2.0',
    'SolidWorks 2019',
    '' );
FILE_SCHEMA (( 'CONFIG_CONTROL_DESIGN' ));
ENDSEC;

DATA;
#1 = AXIS2_PLACEMENT_3D ( 'NONE', #258, #15, #42 ) ;
#2 = CC_DESIGN_SECURITY_CLASSIFICATION ( #195, ( #216 ) ) ;
#3 = CONICAL_SURFACE ( 'NONE', #223, 2.400000000000001243, 0.7853981633974396193 ) ;
#4 = PRODUCT_DEFINITION ( 'UNKNOWN', '', #216, #152 ) ;
#5 = AXIS2_PLACEMENT_3D ( 'NONE', #88, #234, #23 ) ;
#6 = APPROVAL_DATE_TIME ( #37, #153 ) ;
#7 = APPLICATION_CONTEXT ( 'configuration controlled 3d designs of mechanical parts and assemblies' ) ;
#8 = ORIENTED_EDGE ( 'NONE', *, *, #111, .T. ) ;
#9 = PERSON_AND_ORGANIZATION_ROLE ( 'classification_officer' ) ;
#10 = APPROVAL_STATUS ( 'not_yet_approved' ) ;
#11 = CARTESIAN_POINT ( 'NONE',  ( 1.084183805627370017E-14, 2.999999999999993783, 3.000000000000027089 ) ) ;
#12 = ORIENTED_EDGE ( 'NONE', *, *, #275, .T. ) ;
#13 = ADVANCED_FACE ( 'NONE', ( #207 ), #98, .F. ) ;
#14 = SECURITY_CLASSIFICATION_LEVEL ( 'unclassified' ) ;
#15 = DIRECTION ( 'NONE',  ( 3.491481338843133355E-15, -1.224646799147353207E-16, 1.000000000000000000 ) ) ;
#16 = CARTESIAN_POINT ( 'NONE',  ( 1.084183805627370017E-14, 2.999999999999993783, 3.000000000000027089 ) ) ;
#17 = LINE ( 'NONE', #262, #73 ) ;
#18 = VECTOR ( 'NONE', #243, 999.9999999999998863 ) ;
#19 = EDGE_CURVE ( 'NONE', #78, #278, #55, .T. ) ;
#20 = DIRECTION ( 'NONE',  ( -3.491481338843133355E-15, 1.224646799147353207E-16, -1.000000000000000000 ) ) ;
#21 = CARTESIAN_POINT ( 'NONE',  ( 1.047444401652949315E-14, -3.673940397442091916E-16, 3.000000000000026645 ) ) ;
#22 = CLOSED_SHELL ( 'NONE', ( #43, #247, #175 ) ) ;
#23 = DIRECTION ( 'NONE',  ( 0.0000000000000000000, 1.000000000000000000, 0.0000000000000000000 ) ) ;
#24 = LINE ( 'NONE', #131, #71 ) ;
#25 = AXIS2_PLACEMENT_3D ( 'NONE', #281, #264, #46 ) ;
#26 = CONICAL_SURFACE ( 'NONE', #181, 2.999999999999994227, 0.7853981633974428389 ) ;
#27 = EDGE_CURVE ( 'NONE', #276, #122, #17, .T. ) ;
#28 = ADVANCED_BREP_SHAPE_REPRESENTATION ( '63757', ( #167, #69, #85 ), #32 ) ;
#29 = AXIS2_PLACEMENT_3D ( 'NONE', #124, #173, #44 ) ;
#30 = EDGE_CURVE ( 'NONE', #92, #144, #94, .T. ) ;
#31 = DATE_TIME_ROLE ( 'classification_date' ) ;
#32 =( GEOMETRIC_REPRESENTATION_CONTEXT ( 3 ) GLOBAL_UNCERTAINTY_ASSIGNED_CONTEXT ( ( #283 ) ) GLOBAL_UNIT_ASSIGNED_CONTEXT ( ( #80, #60, #132 ) ) REPRESENTATION_CONTEXT ( 'NONE', 'WORKASPACE' ) );
#33 = VERTEX_POINT ( 'NONE', #130 ) ;
#34 = CC_DESIGN_PERSON_AND_ORGANIZATION_ASSIGNMENT ( #208, #211, ( #216 ) ) ;
#35 = EDGE_LOOP ( 'NONE', ( #117, #100 ) ) ;
#36 = APPROVAL_ROLE ( '' ) ;
#37 = DATE_AND_TIME ( #230, #128 ) ;
#38 = CARTESIAN_POINT ( 'NONE',  ( 1.982976465481754348E-13, -2.400000000000007905, 57.00000000000000000 ) ) ;
#39 = ORIENTED_EDGE ( 'NONE', *, *, #160, .F. ) ;
#40 = CIRCLE ( 'NONE', #246, 2.400000000000001243 ) ;
#41 = PERSON_AND_ORGANIZATION ( #192, #107 ) ;
#42 = DIRECTION ( 'NONE',  ( -4.275831445896958607E-31, -1.000000000000000000, -1.224646799147353207E-16 ) ) ;
#43 = ADVANCED_FACE ( 'NONE', ( #217 ), #26, .T. ) ;
#44 = DIRECTION ( 'NONE',  ( 4.275831445896958607E-31, 1.000000000000000000, 1.224646799147353207E-16 ) ) ;
#45 = DIRECTION ( 'NONE',  ( 3.491481338843133355E-15, -1.224646799147353207E-16, 1.000000000000000000 ) ) ;
#46 = DIRECTION ( 'NONE',  ( 0.0000000000000000000, 1.000000000000000000, 0.0000000000000000000 ) ) ;
#47 = DIRECTION ( 'NONE',  ( 0.0000000000000000000, 1.000000000000000000, 0.0000000000000000000 ) ) ;
#48 = CARTESIAN_POINT ( 'NONE',  ( 1.040643898033850957E-13, -3.000000000000007550, 56.39999999999999147 ) ) ;
#49 = CARTESIAN_POINT ( 'NONE',  ( 0.0000000000000000000, 0.0000000000000000000, 0.0000000000000000000 ) ) ;
#50 = EDGE_LOOP ( 'NONE', ( #12, #172, #165, #39 ) ) ;
#51 = PERSON_AND_ORGANIZATION ( #192, #107 ) ;
#52 = ORIENTED_EDGE ( 'NONE', *, *, #275, .F. ) ;
#53 = EDGE_LOOP ( 'NONE', ( #209, #136, #245 ) ) ;
#54 = ORIENTED_EDGE ( 'NONE', *, *, #86, .T. ) ;
#55 = CIRCLE ( 'NONE', #218, 2.999999999999994227 ) ;
#56 = CALENDAR_DATE ( 2021, 21, 9 ) ;
#57 = EDGE_CURVE ( 'NONE', #33, #278, #89, .T. ) ;
#58 = EDGE_LOOP ( 'NONE', ( #188, #253 ) ) ;
#59 = APPROVAL_ROLE ( '' ) ;
#60 =( NAMED_UNIT ( * ) PLANE_ANGLE_UNIT ( ) SI_UNIT ( $, .RADIAN. ) );
#61 = DIRECTION ( 'NONE',  ( -3.491481338843133355E-15, 1.224646799147353207E-16, -1.000000000000000000 ) ) ;
#62 = CONICAL_SURFACE ( 'NONE', #95, 2.999999999999994227, 0.7853981633974428389 ) ;
#63 = DIRECTION ( 'NONE',  ( -5.135813185032639159E-31, -1.000000000000000000, -1.445602896647342121E-16 ) ) ;
#64 = DIRECTION ( 'NONE',  ( 3.491481338843133355E-15, -1.224646799147353207E-16, 1.000000000000000000 ) ) ;
#65 = PLANE ( 'NONE',  #1 ) ;
#66 = CARTESIAN_POINT ( 'NONE',  ( 1.047444401652949315E-14, -3.673940397442091916E-16, 3.000000000000026645 ) ) ;
#67 = FACE_OUTER_BOUND ( 'NONE', #184, .T. ) ;
#68 = ORIENTED_EDGE ( 'NONE', *, *, #27, .F. ) ;
#69 = MANIFOLD_SOLID_BREP ( 'Corps-Déplacer/Copier1[2]', #22 ) ;
#70 = DIRECTION ( 'NONE',  ( 0.0000000000000000000, 0.0000000000000000000, 1.000000000000000000 ) ) ;
#71 = VECTOR ( 'NONE', #110, 1000.000000000000000 ) ;
#72 = EDGE_CURVE ( 'NONE', #122, #186, #96, .T. ) ;
#73 = VECTOR ( 'NONE', #235, 1000.000000000000114 ) ;
#74 = CC_DESIGN_PERSON_AND_ORGANIZATION_ASSIGNMENT ( #51, #134, ( #267 ) ) ;
#75 = ORIENTED_EDGE ( 'NONE', *, *, #72, .F. ) ;
#76 = PERSON_AND_ORGANIZATION ( #192, #107 ) ;
#77 = CIRCLE ( 'NONE', #121, 2.999999999999994227 ) ;
#78 = VERTEX_POINT ( 'NONE', #16 ) ;
#79 = EDGE_CURVE ( 'NONE', #186, #92, #196, .T. ) ;
#80 =( LENGTH_UNIT ( ) NAMED_UNIT ( * ) SI_UNIT ( .MILLI., .METRE. ) );
#81 = ORIENTED_EDGE ( 'NONE', *, *, #79, .T. ) ;
#82 = PERSON_AND_ORGANIZATION ( #192, #107 ) ;
#83 = CARTESIAN_POINT ( 'NONE',  ( 1.047444401652949315E-14, -3.673940397442091916E-16, 3.000000000000026645 ) ) ;
#84 = DIRECTION ( 'NONE',  ( 5.135813185032639159E-31, 1.000000000000000000, 1.445602896647342121E-16 ) ) ;
#85 = AXIS2_PLACEMENT_3D ( 'NONE', #266, #70, #271 ) ;
#86 = EDGE_CURVE ( 'NONE', #278, #78, #77, .T. ) ;
#87 = DIRECTION ( 'NONE',  ( 5.135813185032639159E-31, 1.000000000000000000, 1.445602896647342121E-16 ) ) ;
#88 = CARTESIAN_POINT ( 'NONE',  ( 1.990144363140586139E-13, -6.980486755139912911E-15, 57.00000000000000000 ) ) ;
#89 = LINE ( 'NONE', #176, #149 ) ;
#90 = CIRCLE ( 'NONE', #233, 3.000000000000000888 ) ;
#91 = CARTESIAN_POINT ( 'NONE',  ( 1.969195475107526960E-13, -6.907007947191071191E-15, 56.39999999999999147 ) ) ;
#92 = VERTEX_POINT ( 'NONE', #155 ) ;
#93 = LOCAL_TIME ( 9, 46, 58.00000000000000000, #189 ) ;
#94 = CIRCLE ( 'NONE', #236, 2.999999999999994227 ) ;
#95 = AXIS2_PLACEMENT_3D ( 'NONE', #83, #285, #63 ) ;
#96 = CIRCLE ( 'NONE', #113, 3.000000000000000888 ) ;
#97 = PERSON_AND_ORGANIZATION_ROLE ( 'creator' ) ;
#98 = PLANE ( 'NONE',  #237 ) ;
#99 = COORDINATED_UNIVERSAL_TIME_OFFSET ( 1, 0, .AHEAD. ) ;
#100 = ORIENTED_EDGE ( 'NONE', *, *, #129, .T. ) ;
#101 = CARTESIAN_POINT ( 'NONE',  ( 1.047444401652949157E-14, -2.999999999999994671, 3.000000000000026201 ) ) ;
#102 = EDGE_LOOP ( 'NONE', ( #68, #169, #229, #75 ) ) ;
#103 = DATE_AND_TIME ( #141, #270 ) ;
#104 = FACE_OUTER_BOUND ( 'NONE', #115, .T. ) ;
#105 = LINE ( 'NONE', #11, #180 ) ;
#106 = DIRECTION ( 'NONE',  ( 0.0000000000000000000, 1.000000000000000000, 0.0000000000000000000 ) ) ;
#107 = ORGANIZATION ( 'UNSPECIFIED', 'UNSPECIFIED', '' ) ;
#108 = CARTESIAN_POINT ( 'NONE',  ( 1.990144363140586139E-13, 2.399999999999994138, 57.00000000000000000 ) ) ;
#109 = FACE_OUTER_BOUND ( 'NONE', #256, .T. ) ;
#110 = DIRECTION ( 'NONE',  ( -3.491481338843133355E-15, 1.224646799147353207E-16, -1.000000000000000000 ) ) ;
#111 = EDGE_CURVE ( 'NONE', #186, #122, #90, .T. ) ;
#112 = DIRECTION ( 'NONE',  ( -3.491481338843133355E-15, 1.224646799147353207E-16, -1.000000000000000000 ) ) ;
#113 = AXIS2_PLACEMENT_3D ( 'NONE', #238, #156, #106 ) ;
#114 = APPLICATION_PROTOCOL_DEFINITION ( 'international standard', 'config_control_design', 1994, #7 ) ;
#115 = EDGE_LOOP ( 'NONE', ( #274, #119, #81, #135 ) ) ;
#116 = LOCAL_TIME ( 9, 46, 58.00000000000000000, #182 ) ;
#117 = ORIENTED_EDGE ( 'NONE', *, *, #30, .T. ) ;
#118 = APPROVAL ( #171, 'UNSPECIFIED' ) ;
#119 = ORIENTED_EDGE ( 'NONE', *, *, #72, .T. ) ;
#120 = DATE_AND_TIME ( #227, #210 ) ;
#121 = AXIS2_PLACEMENT_3D ( 'NONE', #66, #286, #87 ) ;
#122 = VERTEX_POINT ( 'NONE', #48 ) ;
#123 = APPROVAL_DATE_TIME ( #185, #118 ) ;
#124 = CARTESIAN_POINT ( 'NONE',  ( 1.990144363140586139E-13, 1.799711739194219550E-32, 57.00000000000000000 ) ) ;
#125 = DIRECTION ( 'NONE',  ( -4.275831445896958607E-31, -1.000000000000000000, -1.224646799147353207E-16 ) ) ;
#126 = PLANE ( 'NONE',  #29 ) ;
#127 = CC_DESIGN_APPROVAL ( #153, ( #195 ) ) ;
#128 = LOCAL_TIME ( 9, 46, 58.00000000000000000, #280 ) ;
#129 = EDGE_CURVE ( 'NONE', #144, #92, #273, .T. ) ;
#130 = CARTESIAN_POINT ( 'NONE',  ( 0.0000000000000000000, 0.0000000000000000000, 0.0000000000000000000 ) ) ;
#131 = CARTESIAN_POINT ( 'NONE',  ( 3.673940397442043598E-16, -2.999999999999997335, -3.673940397442069236E-16 ) ) ;
#132 =( NAMED_UNIT ( * ) SI_UNIT ( $, .STERADIAN. ) SOLID_ANGLE_UNIT ( ) );
#133 = AXIS2_PLACEMENT_3D ( 'NONE', #215, #20, #240 ) ;
#134 = PERSON_AND_ORGANIZATION_ROLE ( 'design_owner' ) ;
#135 = ORIENTED_EDGE ( 'NONE', *, *, #129, .F. ) ;
#136 = ORIENTED_EDGE ( 'NONE', *, *, #222, .T. ) ;
#137 = EDGE_CURVE ( 'NONE', #122, #144, #24, .T. ) ;
#138 = SHAPE_DEFINITION_REPRESENTATION ( #221, #28 ) ;
#139 = APPROVAL_PERSON_ORGANIZATION ( #254, #153, #36 ) ;
#140 = ORIENTED_EDGE ( 'NONE', *, *, #222, .F. ) ;
#141 = CALENDAR_DATE ( 2021, 21, 9 ) ;
#142 = APPROVAL_DATE_TIME ( #120, #228 ) ;
#143 = DIRECTION ( 'NONE',  ( -3.491481338843133355E-15, 1.224646799147353207E-16, -1.000000000000000000 ) ) ;
#144 = VERTEX_POINT ( 'NONE', #198 ) ;
#145 = CARTESIAN_POINT ( 'NONE',  ( 1.990144363140586139E-13, -6.980486755139912911E-15, 57.00000000000000000 ) ) ;
#146 = AXIS2_PLACEMENT_3D ( 'NONE', #220, #112, #84 ) ;
#147 = PRODUCT_RELATED_PRODUCT_CATEGORY ( 'detail', '', ( #267 ) ) ;
#148 = DIRECTION ( 'NONE',  ( 5.135813185032639159E-31, 1.000000000000000000, 1.445602896647342121E-16 ) ) ;
#149 = VECTOR ( 'NONE', #265, 999.9999999999998863 ) ;
#150 = DIRECTION ( 'NONE',  ( -3.491481338843133355E-15, 1.224646799147353207E-16, -1.000000000000000000 ) ) ;
#151 = CYLINDRICAL_SURFACE ( 'NONE', #133, 2.999999999999997335 ) ;
#152 = DESIGN_CONTEXT ( 'detailed design', #7, 'design' ) ;
#153 = APPROVAL ( #10, 'UNSPECIFIED' ) ;
#154 = CARTESIAN_POINT ( 'NONE',  ( 1.969195475107526960E-13, 2.999999999999993783, 56.39999999999999147 ) ) ;
#155 = CARTESIAN_POINT ( 'NONE',  ( 1.047444401652949473E-14, 2.999999999999993783, 3.000000000000027089 ) ) ;
#156 = DIRECTION ( 'NONE',  ( -3.491481338843133355E-15, 1.224646799147353207E-16, -1.000000000000000000 ) ) ;
#157 = CYLINDRICAL_SURFACE ( 'NONE', #226, 2.999999999999997335 ) ;
#158 = EDGE_CURVE ( 'NONE', #276, #250, #40, .T. ) ;
#159 = CC_DESIGN_APPROVAL ( #118, ( #216 ) ) ;
#160 = EDGE_CURVE ( 'NONE', #250, #186, #282, .T. ) ;
#161 = MECHANICAL_CONTEXT ( 'NONE', #201, 'mechanical' ) ;
#162 = VECTOR ( 'NONE', #242, 1000.000000000000000 ) ;
#163 = ORIENTED_EDGE ( 'NONE', *, *, #30, .F. ) ;
#164 = DATE_AND_TIME ( #56, #116 ) ;
#165 = ORIENTED_EDGE ( 'NONE', *, *, #111, .F. ) ;
#166 = ADVANCED_FACE ( 'NONE', ( #67 ), #157, .T. ) ;
#167 = MANIFOLD_SOLID_BREP ( 'Corps-Déplacer/Copier1[1]', #202 ) ;
#168 = APPROVAL_STATUS ( 'not_yet_approved' ) ;
#169 = ORIENTED_EDGE ( 'NONE', *, *, #158, .T. ) ;
#170 = ORIENTED_EDGE ( 'NONE', *, *, #57, .T. ) ;
#171 = APPROVAL_STATUS ( 'not_yet_approved' ) ;
#172 = ORIENTED_EDGE ( 'NONE', *, *, #27, .T. ) ;
#173 = DIRECTION ( 'NONE',  ( -3.491481338843133355E-15, 1.224646799147353207E-16, -1.000000000000000000 ) ) ;
#174 = DIRECTION ( 'NONE',  ( -3.491481338843133355E-15, 1.224646799147353207E-16, -1.000000000000000000 ) ) ;
#175 = ADVANCED_FACE ( 'NONE', ( #231 ), #65, .T. ) ;
#176 = CARTESIAN_POINT ( 'NONE',  ( 1.047444401652949157E-14, -2.999999999999994671, 3.000000000000026201 ) ) ;
#177 = CARTESIAN_POINT ( 'NONE',  ( 1.282749433769086531E-30, 2.999999999999997335, 3.673940397442056417E-16 ) ) ;
#178 = DIRECTION ( 'NONE',  ( -3.491481338843133355E-15, 1.224646799147353207E-16, -1.000000000000000000 ) ) ;
#179 = ADVANCED_FACE ( 'NONE', ( #109 ), #126, .F. ) ;
#180 = VECTOR ( 'NONE', #255, 1000.000000000000000 ) ;
#181 = AXIS2_PLACEMENT_3D ( 'NONE', #214, #45, #287 ) ;
#182 = COORDINATED_UNIVERSAL_TIME_OFFSET ( 1, 0, .AHEAD. ) ;
#183 = ORIENTED_EDGE ( 'NONE', *, *, #158, .F. ) ;
#184 = EDGE_LOOP ( 'NONE', ( #8, #279, #163, #248 ) ) ;
#185 = DATE_AND_TIME ( #249, #93 ) ;
#186 = VERTEX_POINT ( 'NONE', #154 ) ;
#187 = CC_DESIGN_PERSON_AND_ORGANIZATION_ASSIGNMENT ( #277, #9, ( #195 ) ) ;
#188 = ORIENTED_EDGE ( 'NONE', *, *, #86, .F. ) ;
#189 = COORDINATED_UNIVERSAL_TIME_OFFSET ( 1, 0, .AHEAD. ) ;
#190 = FACE_OUTER_BOUND ( 'NONE', #102, .T. ) ;
#191 = DIRECTION ( 'NONE',  ( 0.0000000000000000000, 1.000000000000000000, 0.0000000000000000000 ) ) ;
#192 = PERSON ( 'UNSPECIFIED', 'UNSPECIFIED', 'UNSPECIFIED', ('UNSPECIFIED'), ('UNSPECIFIED'), ('UNSPECIFIED') ) ;
#193 = CC_DESIGN_PERSON_AND_ORGANIZATION_ASSIGNMENT ( #224, #206, ( #216 ) ) ;
#194 = FACE_OUTER_BOUND ( 'NONE', #225, .T. ) ;
#195 = SECURITY_CLASSIFICATION ( '', '', #14 ) ;
#196 = LINE ( 'NONE', #177, #162 ) ;
#197 = DIRECTION ( 'NONE',  ( 5.135813185032639159E-31, 1.000000000000000000, 1.445602896647342121E-16 ) ) ;
#198 = CARTESIAN_POINT ( 'NONE',  ( 1.040643898033852472E-13, -2.999999999999994671, 3.000000000000026201 ) ) ;
#199 = CONICAL_SURFACE ( 'NONE', #25, 2.400000000000001243, 0.7853981633974396193 ) ;
#200 = ADVANCED_FACE ( 'NONE', ( #104 ), #151, .T. ) ;
#201 = APPLICATION_CONTEXT ( 'configuration controlled 3d designs of mechanical parts and assemblies' ) ;
#202 = CLOSED_SHELL ( 'NONE', ( #272, #166, #13, #200, #205, #179 ) ) ;
#203 = CC_DESIGN_PERSON_AND_ORGANIZATION_ASSIGNMENT ( #82, #97, ( #4 ) ) ;
#204 = APPROVAL_PERSON_ORGANIZATION ( #76, #228, #59 ) ;
#205 = ADVANCED_FACE ( 'NONE', ( #190 ), #199, .T. ) ;
#206 = PERSON_AND_ORGANIZATION_ROLE ( 'creator' ) ;
#207 = FACE_OUTER_BOUND ( 'NONE', #35, .T. ) ;
#208 = PERSON_AND_ORGANIZATION ( #192, #107 ) ;
#209 = ORIENTED_EDGE ( 'NONE', *, *, #57, .F. ) ;
#210 = LOCAL_TIME ( 9, 46, 58.00000000000000000, #252 ) ;
#211 = PERSON_AND_ORGANIZATION_ROLE ( 'design_supplier' ) ;
#212 = CARTESIAN_POINT ( 'NONE',  ( 1.047444401652949315E-14, -3.673940397442091916E-16, 3.000000000000026645 ) ) ;
#213 = DIRECTION ( 'NONE',  ( 4.275831445896958607E-31, 1.000000000000000000, 1.224646799147353207E-16 ) ) ;
#214 = CARTESIAN_POINT ( 'NONE',  ( 1.047444401652949315E-14, -3.673940397442091916E-16, 3.000000000000026645 ) ) ;
#215 = CARTESIAN_POINT ( 'NONE',  ( 0.0000000000000000000, 0.0000000000000000000, 0.0000000000000000000 ) ) ;
#216 = PRODUCT_DEFINITION_FORMATION_WITH_SPECIFIED_SOURCE ( 'ANY', '', #267, .NOT_KNOWN. ) ;
#217 = FACE_OUTER_BOUND ( 'NONE', #53, .T. ) ;
#218 = AXIS2_PLACEMENT_3D ( 'NONE', #212, #150, #148 ) ;
#219 = FACE_OUTER_BOUND ( 'NONE', #50, .T. ) ;
#220 = CARTESIAN_POINT ( 'NONE',  ( 1.047444401652949315E-14, -3.673940397442091916E-16, 3.000000000000026645 ) ) ;
#221 = PRODUCT_DEFINITION_SHAPE ( 'NONE', 'NONE',  #4 ) ;
#222 = EDGE_CURVE ( 'NONE', #33, #78, #105, .T. ) ;
#223 = AXIS2_PLACEMENT_3D ( 'NONE', #145, #143, #261 ) ;
#224 = PERSON_AND_ORGANIZATION ( #192, #107 ) ;
#225 = EDGE_LOOP ( 'NONE', ( #140, #170, #54 ) ) ;
#226 = AXIS2_PLACEMENT_3D ( 'NONE', #49, #178, #213 ) ;
#227 = CALENDAR_DATE ( 2021, 21, 9 ) ;
#228 = APPROVAL ( #168, 'UNSPECIFIED' ) ;
#229 = ORIENTED_EDGE ( 'NONE', *, *, #160, .T. ) ;
#230 = CALENDAR_DATE ( 2021, 21, 9 ) ;
#231 = FACE_OUTER_BOUND ( 'NONE', #58, .T. ) ;
#232 = DATE_TIME_ROLE ( 'creation_date' ) ;
#233 = AXIS2_PLACEMENT_3D ( 'NONE', #91, #174, #47 ) ;
#234 = DIRECTION ( 'NONE',  ( -3.491481338843133355E-15, 1.224646799147353207E-16, -1.000000000000000000 ) ) ;
#235 = DIRECTION ( 'NONE',  ( -2.382254525458738374E-15, -0.7071067811865412445, -0.7071067811865536790 ) ) ;
#236 = AXIS2_PLACEMENT_3D ( 'NONE', #21, #239, #197 ) ;
#237 = AXIS2_PLACEMENT_3D ( 'NONE', #268, #64, #125 ) ;
#238 = CARTESIAN_POINT ( 'NONE',  ( 1.969195475107526960E-13, -6.907007947191071191E-15, 56.39999999999999147 ) ) ;
#239 = DIRECTION ( 'NONE',  ( -3.491481338843133355E-15, 1.224646799147353207E-16, -1.000000000000000000 ) ) ;
#240 = DIRECTION ( 'NONE',  ( 4.275831445896958607E-31, 1.000000000000000000, 1.224646799147353207E-16 ) ) ;
#241 = CC_DESIGN_DATE_AND_TIME_ASSIGNMENT ( #164, #232, ( #4 ) ) ;
#242 = DIRECTION ( 'NONE',  ( -3.491481338843133355E-15, 1.224646799147353207E-16, -1.000000000000000000 ) ) ;
#243 = DIRECTION ( 'NONE',  ( -2.468850131082286643E-15, 0.7071067811865414665, -0.7071067811865536790 ) ) ;
#244 = CC_DESIGN_APPROVAL ( #228, ( #4 ) ) ;
#245 = ORIENTED_EDGE ( 'NONE', *, *, #19, .T. ) ;
#246 = AXIS2_PLACEMENT_3D ( 'NONE', #259, #61, #191 ) ;
#247 = ADVANCED_FACE ( 'NONE', ( #194 ), #62, .T. ) ;
#248 = ORIENTED_EDGE ( 'NONE', *, *, #79, .F. ) ;
#249 = CALENDAR_DATE ( 2021, 21, 9 ) ;
#250 = VERTEX_POINT ( 'NONE', #108 ) ;
#251 = CC_DESIGN_DATE_AND_TIME_ASSIGNMENT ( #103, #31, ( #195 ) ) ;
#252 = COORDINATED_UNIVERSAL_TIME_OFFSET ( 1, 0, .AHEAD. ) ;
#253 = ORIENTED_EDGE ( 'NONE', *, *, #19, .F. ) ;
#254 = PERSON_AND_ORGANIZATION ( #192, #107 ) ;
#255 = DIRECTION ( 'NONE',  ( 2.555445736705827812E-15, 0.7071067811865435759, 0.7071067811865514585 ) ) ;
#256 = EDGE_LOOP ( 'NONE', ( #52, #183 ) ) ;
#257 = APPROVAL_ROLE ( '' ) ;
#258 = CARTESIAN_POINT ( 'NONE',  ( 1.047444401652950577E-14, 3.942705183855621059E-31, 3.000000000000030198 ) ) ;
#259 = CARTESIAN_POINT ( 'NONE',  ( 1.990144363140586139E-13, -6.980486755139912911E-15, 57.00000000000000000 ) ) ;
#260 = CIRCLE ( 'NONE', #5, 2.400000000000001243 ) ;
#261 = DIRECTION ( 'NONE',  ( 0.0000000000000000000, 1.000000000000000000, 0.0000000000000000000 ) ) ;
#262 = CARTESIAN_POINT ( 'NONE',  ( 1.993083515458539681E-13, -2.400000000000007905, 57.00000000000000000 ) ) ;
#263 = APPLICATION_PROTOCOL_DEFINITION ( 'international standard', 'config_control_design', 1994, #201 ) ;
#264 = DIRECTION ( 'NONE',  ( -3.491481338843133355E-15, 1.224646799147353207E-16, -1.000000000000000000 ) ) ;
#265 = DIRECTION ( 'NONE',  ( 2.468850131082278754E-15, -0.7071067811865439090, 0.7071067811865512365 ) ) ;
#266 = CARTESIAN_POINT ( 'NONE',  ( 0.0000000000000000000, 0.0000000000000000000, 0.0000000000000000000 ) ) ;
#267 = PRODUCT ( '63757', '63757', '', ( #161 ) ) ;
#268 = CARTESIAN_POINT ( 'NONE',  ( 1.047444401652950577E-14, 3.942705183855621059E-31, 3.000000000000030198 ) ) ;
#269 = CARTESIAN_POINT ( 'NONE',  ( 1.990144363140586139E-13, 2.399999999999994138, 57.00000000000000000 ) ) ;
#270 = LOCAL_TIME ( 9, 46, 58.00000000000000000, #99 ) ;
#271 = DIRECTION ( 'NONE',  ( 1.000000000000000000, 0.0000000000000000000, 0.0000000000000000000 ) ) ;
#272 = ADVANCED_FACE ( 'NONE', ( #219 ), #3, .T. ) ;
#273 = CIRCLE ( 'NONE', #146, 2.999999999999994227 ) ;
#274 = ORIENTED_EDGE ( 'NONE', *, *, #137, .F. ) ;
#275 = EDGE_CURVE ( 'NONE', #250, #276, #260, .T. ) ;
#276 = VERTEX_POINT ( 'NONE', #38 ) ;
#277 = PERSON_AND_ORGANIZATION ( #192, #107 ) ;
#278 = VERTEX_POINT ( 'NONE', #101 ) ;
#279 = ORIENTED_EDGE ( 'NONE', *, *, #137, .T. ) ;
#280 = COORDINATED_UNIVERSAL_TIME_OFFSET ( 1, 0, .AHEAD. ) ;
#281 = CARTESIAN_POINT ( 'NONE',  ( 1.990144363140586139E-13, -6.980486755139912911E-15, 57.00000000000000000 ) ) ;
#282 = LINE ( 'NONE', #269, #18 ) ;
#283 = UNCERTAINTY_MEASURE_WITH_UNIT (LENGTH_MEASURE( 1.000000000000000082E-05 ), #80, 'distance_accuracy_value', 'NONE');
#284 = APPROVAL_PERSON_ORGANIZATION ( #41, #118, #257 ) ;
#285 = DIRECTION ( 'NONE',  ( 3.491481338843133355E-15, -1.224646799147353207E-16, 1.000000000000000000 ) ) ;
#286 = DIRECTION ( 'NONE',  ( -3.491481338843133355E-15, 1.224646799147353207E-16, -1.000000000000000000 ) ) ;
#287 = DIRECTION ( 'NONE',  ( -5.135813185032639159E-31, -1.000000000000000000, -1.445602896647342121E-16 ) ) ;
ENDSEC;
END-ISO-10303-21;
