ISO-10303-21;
HEADER;
FILE_DESCRIPTION (( 'STEP AP203' ),
    '1' );
FILE_NAME ('63736.step',
    '2021-09-21T07:46:57',
    ( '' ),
    ( '' ),
    'SwSTEP 2.0',
    'SolidWorks 2019',
    '' );
FILE_SCHEMA (( 'CONFIG_CONTROL_DESIGN' ));
ENDSEC;

DATA;
#1 = EDGE_CURVE ( 'NONE', #156, #178, #157, .T. ) ;
#2 = CYLINDRICAL_SURFACE ( 'NONE', #179, 2.499999999999999556 ) ;
#3 = ORIENTED_EDGE ( 'NONE', *, *, #1, .F. ) ;
#4 = CONICAL_SURFACE ( 'NONE', #111, 2.000000000000002220, 0.7853981633974479459 ) ;
#5 = ADVANCED_FACE ( 'NONE', ( #201 ), #2, .T. ) ;
#6 = FACE_OUTER_BOUND ( 'NONE', #285, .T. ) ;
#7 = DIRECTION ( 'NONE',  ( 3.491481338843133355E-15, -1.224646799147353207E-16, 1.000000000000000000 ) ) ;
#8 = DIRECTION ( 'NONE',  ( 2.468850131082278754E-15, -0.7071067811865437980, 0.7071067811865513475 ) ) ;
#9 = CARTESIAN_POINT ( 'NONE',  ( 0.0000000000000000000, 0.0000000000000000000, 0.0000000000000000000 ) ) ;
#10 = PERSON_AND_ORGANIZATION_ROLE ( 'creator' ) ;
#11 = DIRECTION ( 'NONE',  ( 0.0000000000000000000, 1.000000000000000000, 0.0000000000000000000 ) ) ;
#12 = CALENDAR_DATE ( 2021, 21, 9 ) ;
#13 = VECTOR ( 'NONE', #123, 1000.000000000000000 ) ;
#14 = CC_DESIGN_APPROVAL ( #266, ( #255 ) ) ;
#15 = DIRECTION ( 'NONE',  ( -3.491481338843133355E-15, 1.224646799147353207E-16, -1.000000000000000000 ) ) ;
#16 = ADVANCED_FACE ( 'NONE', ( #31 ), #76, .T. ) ;
#17 = APPROVAL_STATUS ( 'not_yet_approved' ) ;
#18 = AXIS2_PLACEMENT_3D ( 'NONE', #272, #80, #103 ) ;
#19 = EDGE_LOOP ( 'NONE', ( #21, #22 ) ) ;
#20 = VERTEX_POINT ( 'NONE', #51 ) ;
#21 = ORIENTED_EDGE ( 'NONE', *, *, #277, .F. ) ;
#22 = ORIENTED_EDGE ( 'NONE', *, *, #167, .F. ) ;
#23 = VERTEX_POINT ( 'NONE', #163 ) ;
#24 = EDGE_CURVE ( 'NONE', #245, #225, #145, .T. ) ;
#25 = CARTESIAN_POINT ( 'NONE',  ( 1.745740669421566678E-13, -6.123233995736766085E-15, 50.00000000000000000 ) ) ;
#26 = AXIS2_PLACEMENT_3D ( 'NONE', #173, #62, #110 ) ;
#27 = AXIS2_PLACEMENT_3D ( 'NONE', #165, #7, #251 ) ;
#28 = DIRECTION ( 'NONE',  ( 4.275831445896958607E-31, 1.000000000000000000, 1.224646799147353207E-16 ) ) ;
#29 = DIRECTION ( 'NONE',  ( -3.491481338843133355E-15, 1.224646799147353207E-16, -1.000000000000000000 ) ) ;
#30 = CALENDAR_DATE ( 2021, 21, 9 ) ;
#31 = FACE_OUTER_BOUND ( 'NONE', #243, .T. ) ;
#32 = APPROVAL ( #129, 'UNSPECIFIED' ) ;
#33 = AXIS2_PLACEMENT_3D ( 'NONE', #235, #15, #239 ) ;
#34 = DIRECTION ( 'NONE',  ( -2.382254525458717469E-15, -0.7071067811865471286, -0.7071067811865479058 ) ) ;
#35 = COORDINATED_UNIVERSAL_TIME_OFFSET ( 1, 0, .AHEAD. ) ;
#36 = APPROVAL_ROLE ( '' ) ;
#37 = APPROVAL_DATE_TIME ( #211, #32 ) ;
#38 = CARTESIAN_POINT ( 'NONE',  ( 8.728703347107926474E-15, -4.336808689942064082E-16, 2.500000000000026645 ) ) ;
#39 = AXIS2_PLACEMENT_3D ( 'NONE', #78, #141, #276 ) ;
#40 = DIRECTION ( 'NONE',  ( 0.0000000000000000000, 1.000000000000000000, 0.0000000000000000000 ) ) ;
#41 = CONICAL_SURFACE ( 'NONE', #27, 2.499999999999996447, 0.7853981633974428389 ) ;
#42 = CARTESIAN_POINT ( 'NONE',  ( 1.745740669421566678E-13, -6.123233995736766085E-15, 50.00000000000000000 ) ) ;
#43 = EDGE_CURVE ( 'NONE', #112, #156, #164, .T. ) ;
#44 = ORIENTED_EDGE ( 'NONE', *, *, #61, .T. ) ;
#45 = EDGE_CURVE ( 'NONE', #178, #225, #91, .T. ) ;
#46 = ORIENTED_EDGE ( 'NONE', *, *, #277, .T. ) ;
#47 = ORIENTED_EDGE ( 'NONE', *, *, #263, .F. ) ;
#48 = CIRCLE ( 'NONE', #264, 2.499999999999996447 ) ;
#49 = DIRECTION ( 'NONE',  ( 4.275831445896958607E-31, 1.000000000000000000, 1.224646799147353207E-16 ) ) ;
#50 = ADVANCED_FACE ( 'NONE', ( #226 ), #130, .T. ) ;
#51 = CARTESIAN_POINT ( 'NONE',  ( 9.034865046894756456E-15, 2.499999999999996003, 2.500000000000024425 ) ) ;
#52 = PLANE ( 'NONE',  #154 ) ;
#53 = AXIS2_PLACEMENT_3D ( 'NONE', #185, #269, #117 ) ;
#54 = DIRECTION ( 'NONE',  ( 3.491481338843133355E-15, -1.224646799147353207E-16, 1.000000000000000000 ) ) ;
#55 = APPROVAL_STATUS ( 'not_yet_approved' ) ;
#56 = ADVANCED_FACE ( 'NONE', ( #253 ), #247, .T. ) ;
#57 = CARTESIAN_POINT ( 'NONE',  ( 1.739767421372540480E-13, -2.000000000000008438, 50.00000000000000000 ) ) ;
#58 = CARTESIAN_POINT ( 'NONE',  ( 1.745740669421566678E-13, 1.499759782661850218E-32, 50.00000000000000000 ) ) ;
#59 = PERSON_AND_ORGANIZATION_ROLE ( 'design_supplier' ) ;
#60 = PERSON_AND_ORGANIZATION_ROLE ( 'creator' ) ;
#61 = EDGE_CURVE ( 'NONE', #23, #112, #233, .T. ) ;
#62 = DIRECTION ( 'NONE',  ( 0.0000000000000000000, 0.0000000000000000000, 1.000000000000000000 ) ) ;
#63 = PERSON_AND_ORGANIZATION_ROLE ( 'design_owner' ) ;
#64 = PERSON ( 'UNSPECIFIED', 'UNSPECIFIED', 'UNSPECIFIED', ('UNSPECIFIED'), ('UNSPECIFIED'), ('UNSPECIFIED') ) ;
#65 = CARTESIAN_POINT ( 'NONE',  ( 9.034865046894756456E-15, 2.499999999999996003, 2.500000000000024425 ) ) ;
#66 = APPLICATION_PROTOCOL_DEFINITION ( 'international standard', 'config_control_design', 1994, #81 ) ;
#67 = EDGE_LOOP ( 'NONE', ( #68, #133, #72, #113 ) ) ;
#68 = ORIENTED_EDGE ( 'NONE', *, *, #43, .F. ) ;
#69 = ORIENTED_EDGE ( 'NONE', *, *, #222, .T. ) ;
#70 = ORIENTED_EDGE ( 'NONE', *, *, #109, .T. ) ;
#71 = APPROVAL ( #55, 'UNSPECIFIED' ) ;
#72 = ORIENTED_EDGE ( 'NONE', *, *, #95, .T. ) ;
#73 = AXIS2_PLACEMENT_3D ( 'NONE', #232, #54, #209 ) ;
#74 = CARTESIAN_POINT ( 'NONE',  ( 1.745740669421566678E-13, 1.999999999999996225, 50.00000000000000000 ) ) ;
#75 = DESIGN_CONTEXT ( 'detailed design', #81, 'design' ) ;
#76 = CYLINDRICAL_SURFACE ( 'NONE', #53, 2.499999999999999556 ) ;
#77 = DATE_TIME_ROLE ( 'classification_date' ) ;
#78 = CARTESIAN_POINT ( 'NONE',  ( 8.728703347107926474E-15, -4.336808689942064082E-16, 2.500000000000026645 ) ) ;
#79 = PRODUCT_DEFINITION_FORMATION_WITH_SPECIFIED_SOURCE ( 'ANY', '', #139, .NOT_KNOWN. ) ;
#80 = DIRECTION ( 'NONE',  ( -3.491481338843133355E-15, 1.224646799147353207E-16, -1.000000000000000000 ) ) ;
#81 = APPLICATION_CONTEXT ( 'configuration controlled 3d designs of mechanical parts and assemblies' ) ;
#82 = CARTESIAN_POINT ( 'NONE',  ( 8.728703347107915430E-15, -2.499999999999996891, 2.500000000000023537 ) ) ;
#83 = APPROVAL_DATE_TIME ( #278, #266 ) ;
#84 = APPROVAL_PERSON_ORGANIZATION ( #85, #266, #36 ) ;
#85 = PERSON_AND_ORGANIZATION ( #64, #205 ) ;
#86 = ADVANCED_FACE ( 'NONE', ( #254 ), #41, .T. ) ;
#87 = APPROVAL_PERSON_ORGANIZATION ( #128, #71, #171 ) ;
#88 = COORDINATED_UNIVERSAL_TIME_OFFSET ( 1, 0, .AHEAD. ) ;
#89 = ORIENTED_EDGE ( 'NONE', *, *, #238, .T. ) ;
#90 = ADVANCED_BREP_SHAPE_REPRESENTATION ( '63736', ( #177, #176, #26 ), #148 ) ;
#91 = CIRCLE ( 'NONE', #249, 2.499999999999996447 ) ;
#92 = VECTOR ( 'NONE', #8, 1000.000000000000000 ) ;
#93 = ORIENTED_EDGE ( 'NONE', *, *, #95, .F. ) ;
#94 = CARTESIAN_POINT ( 'NONE',  ( 0.0000000000000000000, 0.0000000000000000000, 0.0000000000000000000 ) ) ;
#95 = EDGE_CURVE ( 'NONE', #23, #245, #206, .T. ) ;
#96 = EDGE_LOOP ( 'NONE', ( #44, #224, #116, #93 ) ) ;
#97 = AXIS2_PLACEMENT_3D ( 'NONE', #183, #29, #204 ) ;
#98 = LINE ( 'NONE', #168, #92 ) ;
#99 = DIRECTION ( 'NONE',  ( -2.468850131082266527E-15, 0.7071067811865473507, -0.7071067811865477948 ) ) ;
#100 = CARTESIAN_POINT ( 'NONE',  ( 1.068957861474239389E-30, 2.499999999999999556, 3.061616997868382648E-16 ) ) ;
#101 = CARTESIAN_POINT ( 'NONE',  ( 9.108467650970819151E-14, -2.500000000000008438, 49.50000000000000000 ) ) ;
#102 = CC_DESIGN_PERSON_AND_ORGANIZATION_ASSIGNMENT ( #281, #60, ( #255 ) ) ;
#103 = DIRECTION ( 'NONE',  ( 0.0000000000000000000, 1.000000000000000000, 0.0000000000000000000 ) ) ;
#104 = PERSON_AND_ORGANIZATION ( #64, #205 ) ;
#105 = DIRECTION ( 'NONE',  ( 3.491481338843133355E-15, -1.224646799147353207E-16, 1.000000000000000000 ) ) ;
#106 = VECTOR ( 'NONE', #135, 1000.000000000000000 ) ;
#107 = APPROVAL_ROLE ( '' ) ;
#108 =( LENGTH_UNIT ( ) NAMED_UNIT ( * ) SI_UNIT ( .MILLI., .METRE. ) );
#109 = EDGE_CURVE ( 'NONE', #225, #178, #115, .T. ) ;
#110 = DIRECTION ( 'NONE',  ( 1.000000000000000000, 0.0000000000000000000, 0.0000000000000000000 ) ) ;
#111 = AXIS2_PLACEMENT_3D ( 'NONE', #125, #212, #11 ) ;
#112 = VERTEX_POINT ( 'NONE', #57 ) ;
#113 = ORIENTED_EDGE ( 'NONE', *, *, #238, .F. ) ;
#114 = EDGE_LOOP ( 'NONE', ( #69, #180, #240, #134 ) ) ;
#115 = CIRCLE ( 'NONE', #97, 2.499999999999996447 ) ;
#116 = ORIENTED_EDGE ( 'NONE', *, *, #222, .F. ) ;
#117 = DIRECTION ( 'NONE',  ( 4.275831445896958607E-31, 1.000000000000000000, 1.224646799147353207E-16 ) ) ;
#118 = LOCAL_TIME ( 9, 46, 57.00000000000000000, #88 ) ;
#119 = CC_DESIGN_PERSON_AND_ORGANIZATION_ASSIGNMENT ( #131, #63, ( #139 ) ) ;
#120 = DIRECTION ( 'NONE',  ( 0.0000000000000000000, 1.000000000000000000, 0.0000000000000000000 ) ) ;
#121 = DIRECTION ( 'NONE',  ( 6.162975822039163488E-31, 1.000000000000000000, 1.734723475976809560E-16 ) ) ;
#122 = APPROVAL_DATE_TIME ( #213, #71 ) ;
#123 = DIRECTION ( 'NONE',  ( -3.491481338843133355E-15, 1.224646799147353207E-16, -1.000000000000000000 ) ) ;
#124 = APPLICATION_CONTEXT ( 'configuration controlled 3d designs of mechanical parts and assemblies' ) ;
#125 = CARTESIAN_POINT ( 'NONE',  ( 1.745740669421566678E-13, -6.123233995736766085E-15, 50.00000000000000000 ) ) ;
#126 = DATE_AND_TIME ( #186, #273 ) ;
#127 = CALENDAR_DATE ( 2021, 21, 9 ) ;
#128 = PERSON_AND_ORGANIZATION ( #64, #205 ) ;
#129 = APPROVAL_STATUS ( 'not_yet_approved' ) ;
#130 = CONICAL_SURFACE ( 'NONE', #143, 2.000000000000002220, 0.7853981633974479459 ) ;
#131 = PERSON_AND_ORGANIZATION ( #64, #205 ) ;
#132 = CONICAL_SURFACE ( 'NONE', #73, 2.499999999999996447, 0.7853981633974428389 ) ;
#133 = ORIENTED_EDGE ( 'NONE', *, *, #284, .T. ) ;
#134 = ORIENTED_EDGE ( 'NONE', *, *, #24, .F. ) ;
#135 = DIRECTION ( 'NONE',  ( -3.491481338843133355E-15, 1.224646799147353207E-16, -1.000000000000000000 ) ) ;
#136 = ADVANCED_FACE ( 'NONE', ( #248 ), #132, .T. ) ;
#137 = EDGE_LOOP ( 'NONE', ( #200, #223, #241 ) ) ;
#138 = CC_DESIGN_APPROVAL ( #32, ( #79 ) ) ;
#139 = PRODUCT ( '63736', '63736', '', ( #279 ) ) ;
#140 = VERTEX_POINT ( 'NONE', #9 ) ;
#141 = DIRECTION ( 'NONE',  ( 3.491481338843133355E-15, -1.224646799147353207E-16, 1.000000000000000000 ) ) ;
#142 = FACE_OUTER_BOUND ( 'NONE', #67, .T. ) ;
#143 = AXIS2_PLACEMENT_3D ( 'NONE', #25, #187, #120 ) ;
#144 = DIRECTION ( 'NONE',  ( -3.491481338843133355E-15, 1.224646799147353207E-16, -1.000000000000000000 ) ) ;
#145 = LINE ( 'NONE', #100, #13 ) ;
#146 = DIRECTION ( 'NONE',  ( -3.491481338843133355E-15, 1.224646799147353207E-16, -1.000000000000000000 ) ) ;
#147 = CC_DESIGN_PERSON_AND_ORGANIZATION_ASSIGNMENT ( #104, #59, ( #79 ) ) ;
#148 =( GEOMETRIC_REPRESENTATION_CONTEXT ( 3 ) GLOBAL_UNCERTAINTY_ASSIGNED_CONTEXT ( ( #162 ) ) GLOBAL_UNIT_ASSIGNED_CONTEXT ( ( #108, #262, #260 ) ) REPRESENTATION_CONTEXT ( 'NONE', 'WORKASPACE' ) );
#149 = PERSON_AND_ORGANIZATION ( #64, #205 ) ;
#150 = DIRECTION ( 'NONE',  ( -3.491481338843133355E-15, 1.224646799147353207E-16, -1.000000000000000000 ) ) ;
#151 = DIRECTION ( 'NONE',  ( 2.555445736705828206E-15, 0.7071067811865435759, 0.7071067811865515695 ) ) ;
#152 = ORIENTED_EDGE ( 'NONE', *, *, #284, .F. ) ;
#153 = CLOSED_SHELL ( 'NONE', ( #50, #5, #271, #16, #198, #158 ) ) ;
#154 = AXIS2_PLACEMENT_3D ( 'NONE', #58, #146, #28 ) ;
#155 = LOCAL_TIME ( 9, 46, 57.00000000000000000, #214 ) ;
#156 = VERTEX_POINT ( 'NONE', #101 ) ;
#157 = LINE ( 'NONE', #242, #106 ) ;
#158 = ADVANCED_FACE ( 'NONE', ( #6 ), #52, .F. ) ;
#159 = ORIENTED_EDGE ( 'NONE', *, *, #45, .F. ) ;
#160 = DIRECTION ( 'NONE',  ( -3.491481338843133355E-15, 1.224646799147353207E-16, -1.000000000000000000 ) ) ;
#161 = CC_DESIGN_APPROVAL ( #71, ( #250 ) ) ;
#162 = UNCERTAINTY_MEASURE_WITH_UNIT (LENGTH_MEASURE( 1.000000000000000082E-05 ), #108, 'distance_accuracy_value', 'NONE');
#163 = CARTESIAN_POINT ( 'NONE',  ( 1.745740669421566678E-13, 1.999999999999996225, 50.00000000000000000 ) ) ;
#164 = LINE ( 'NONE', #274, #217 ) ;
#165 = CARTESIAN_POINT ( 'NONE',  ( 8.728703347107917007E-15, -3.061616997868412230E-16, 2.500000000000023981 ) ) ;
#166 = CARTESIAN_POINT ( 'NONE',  ( 8.728703347107917007E-15, -3.061616997868412230E-16, 2.500000000000023981 ) ) ;
#167 = EDGE_CURVE ( 'NONE', #20, #181, #48, .T. ) ;
#168 = CARTESIAN_POINT ( 'NONE',  ( 8.728703347107915430E-15, -2.499999999999996891, 2.500000000000023537 ) ) ;
#169 = PERSON_AND_ORGANIZATION ( #64, #205 ) ;
#170 = FACE_OUTER_BOUND ( 'NONE', #265, .T. ) ;
#171 = APPROVAL_ROLE ( '' ) ;
#172 = CIRCLE ( 'NONE', #33, 2.499999999999996447 ) ;
#173 = CARTESIAN_POINT ( 'NONE',  ( 0.0000000000000000000, 0.0000000000000000000, 0.0000000000000000000 ) ) ;
#174 = DIRECTION ( 'NONE',  ( 0.0000000000000000000, 1.000000000000000000, 0.0000000000000000000 ) ) ;
#175 = VECTOR ( 'NONE', #99, 999.9999999999998863 ) ;
#176 = MANIFOLD_SOLID_BREP ( 'Corps-Déplacer/Copier1[2]', #227 ) ;
#177 = MANIFOLD_SOLID_BREP ( 'Corps-Déplacer/Copier1[1]', #153 ) ;
#178 = VERTEX_POINT ( 'NONE', #230 ) ;
#179 = AXIS2_PLACEMENT_3D ( 'NONE', #94, #160, #49 ) ;
#180 = ORIENTED_EDGE ( 'NONE', *, *, #1, .T. ) ;
#181 = VERTEX_POINT ( 'NONE', #82 ) ;
#182 = CIRCLE ( 'NONE', #280, 2.000000000000002220 ) ;
#183 = CARTESIAN_POINT ( 'NONE',  ( 8.728703347107917007E-15, -3.061616997868412230E-16, 2.500000000000023981 ) ) ;
#184 = CALENDAR_DATE ( 2021, 21, 9 ) ;
#185 = CARTESIAN_POINT ( 'NONE',  ( 0.0000000000000000000, 0.0000000000000000000, 0.0000000000000000000 ) ) ;
#186 = CALENDAR_DATE ( 2021, 21, 9 ) ;
#187 = DIRECTION ( 'NONE',  ( -3.491481338843133355E-15, 1.224646799147353207E-16, -1.000000000000000000 ) ) ;
#188 = LOCAL_TIME ( 9, 46, 57.00000000000000000, #191 ) ;
#189 = EDGE_CURVE ( 'NONE', #140, #181, #98, .T. ) ;
#190 = CARTESIAN_POINT ( 'NONE',  ( 8.728703347107917007E-15, -3.061616997868412230E-16, 2.500000000000023981 ) ) ;
#191 = COORDINATED_UNIVERSAL_TIME_OFFSET ( 1, 0, .AHEAD. ) ;
#192 = DIRECTION ( 'NONE',  ( -3.491481338843133355E-15, 1.224646799147353207E-16, -1.000000000000000000 ) ) ;
#193 = LOCAL_TIME ( 9, 46, 57.00000000000000000, #215 ) ;
#194 = CARTESIAN_POINT ( 'NONE',  ( 8.728703347107918585E-15, 2.499999999999996003, 2.500000000000024425 ) ) ;
#195 = APPLICATION_PROTOCOL_DEFINITION ( 'international standard', 'config_control_design', 1994, #124 ) ;
#196 = CC_DESIGN_PERSON_AND_ORGANIZATION_ASSIGNMENT ( #256, #10, ( #79 ) ) ;
#197 = ORIENTED_EDGE ( 'NONE', *, *, #61, .F. ) ;
#198 = ADVANCED_FACE ( 'NONE', ( #142 ), #4, .T. ) ;
#199 = ORIENTED_EDGE ( 'NONE', *, *, #24, .T. ) ;
#200 = ORIENTED_EDGE ( 'NONE', *, *, #189, .F. ) ;
#201 = FACE_OUTER_BOUND ( 'NONE', #114, .T. ) ;
#202 = PRODUCT_RELATED_PRODUCT_CATEGORY ( 'detail', '', ( #139 ) ) ;
#203 = ORIENTED_EDGE ( 'NONE', *, *, #45, .T. ) ;
#204 = DIRECTION ( 'NONE',  ( 6.162975822039163488E-31, 1.000000000000000000, 1.734723475976809560E-16 ) ) ;
#205 = ORGANIZATION ( 'UNSPECIFIED', 'UNSPECIFIED', '' ) ;
#206 = LINE ( 'NONE', #74, #175 ) ;
#207 = DIRECTION ( 'NONE',  ( 6.162975822039163488E-31, 1.000000000000000000, 1.734723475976809560E-16 ) ) ;
#208 = SHAPE_DEFINITION_REPRESENTATION ( #246, #90 ) ;
#209 = DIRECTION ( 'NONE',  ( -6.162975822039163488E-31, -1.000000000000000000, -1.734723475976809560E-16 ) ) ;
#210 = VECTOR ( 'NONE', #151, 1000.000000000000000 ) ;
#211 = DATE_AND_TIME ( #184, #118 ) ;
#212 = DIRECTION ( 'NONE',  ( -3.491481338843133355E-15, 1.224646799147353207E-16, -1.000000000000000000 ) ) ;
#213 = DATE_AND_TIME ( #30, #193 ) ;
#214 = COORDINATED_UNIVERSAL_TIME_OFFSET ( 1, 0, .AHEAD. ) ;
#215 = COORDINATED_UNIVERSAL_TIME_OFFSET ( 1, 0, .AHEAD. ) ;
#216 = LINE ( 'NONE', #65, #210 ) ;
#217 = VECTOR ( 'NONE', #34, 1000.000000000000000 ) ;
#218 = DIRECTION ( 'NONE',  ( -4.275831445896958607E-31, -1.000000000000000000, -1.224646799147353207E-16 ) ) ;
#219 = PLANE ( 'NONE',  #268 ) ;
#220 = CC_DESIGN_PERSON_AND_ORGANIZATION_ASSIGNMENT ( #169, #275, ( #250 ) ) ;
#221 = CARTESIAN_POINT ( 'NONE',  ( 1.728283262727351074E-13, 2.499999999999996003, 49.50000000000000000 ) ) ;
#222 = EDGE_CURVE ( 'NONE', #245, #156, #261, .T. ) ;
#223 = ORIENTED_EDGE ( 'NONE', *, *, #263, .T. ) ;
#224 = ORIENTED_EDGE ( 'NONE', *, *, #43, .T. ) ;
#225 = VERTEX_POINT ( 'NONE', #194 ) ;
#226 = FACE_OUTER_BOUND ( 'NONE', #96, .T. ) ;
#227 = CLOSED_SHELL ( 'NONE', ( #86, #136, #56 ) ) ;
#228 = AXIS2_PLACEMENT_3D ( 'NONE', #270, #229, #236 ) ;
#229 = DIRECTION ( 'NONE',  ( -3.491481338843133355E-15, 1.224646799147353207E-16, -1.000000000000000000 ) ) ;
#230 = CARTESIAN_POINT ( 'NONE',  ( 9.108467650970830511E-14, -2.499999999999996891, 2.500000000000023537 ) ) ;
#231 = DIRECTION ( 'NONE',  ( -3.491481338843133355E-15, 1.224646799147353207E-16, -1.000000000000000000 ) ) ;
#232 = CARTESIAN_POINT ( 'NONE',  ( 8.728703347107917007E-15, -3.061616997868412230E-16, 2.500000000000023981 ) ) ;
#233 = CIRCLE ( 'NONE', #18, 2.000000000000002220 ) ;
#234 = CC_DESIGN_DATE_AND_TIME_ASSIGNMENT ( #258, #259, ( #255 ) ) ;
#235 = CARTESIAN_POINT ( 'NONE',  ( 8.728703347107917007E-15, -3.061616997868412230E-16, 2.500000000000023981 ) ) ;
#236 = DIRECTION ( 'NONE',  ( 0.0000000000000000000, 1.000000000000000000, 0.0000000000000000000 ) ) ;
#237 = APPROVAL_PERSON_ORGANIZATION ( #149, #32, #107 ) ;
#238 = EDGE_CURVE ( 'NONE', #156, #245, #257, .T. ) ;
#239 = DIRECTION ( 'NONE',  ( 6.162975822039163488E-31, 1.000000000000000000, 1.734723475976809560E-16 ) ) ;
#240 = ORIENTED_EDGE ( 'NONE', *, *, #109, .F. ) ;
#241 = ORIENTED_EDGE ( 'NONE', *, *, #167, .T. ) ;
#242 = CARTESIAN_POINT ( 'NONE',  ( 3.061616997868371801E-16, -2.499999999999999556, -3.061616997868393002E-16 ) ) ;
#243 = EDGE_LOOP ( 'NONE', ( #3, #89, #199, #159 ) ) ;
#244 = CC_DESIGN_SECURITY_CLASSIFICATION ( #250, ( #79 ) ) ;
#245 = VERTEX_POINT ( 'NONE', #221 ) ;
#246 = PRODUCT_DEFINITION_SHAPE ( 'NONE', 'NONE',  #255 ) ;
#247 = PLANE ( 'NONE',  #39 ) ;
#248 = FACE_OUTER_BOUND ( 'NONE', #267, .T. ) ;
#249 = AXIS2_PLACEMENT_3D ( 'NONE', #166, #231, #121 ) ;
#250 = SECURITY_CLASSIFICATION ( '', '', #252 ) ;
#251 = DIRECTION ( 'NONE',  ( -6.162975822039163488E-31, -1.000000000000000000, -1.734723475976809560E-16 ) ) ;
#252 = SECURITY_CLASSIFICATION_LEVEL ( 'unclassified' ) ;
#253 = FACE_OUTER_BOUND ( 'NONE', #19, .T. ) ;
#254 = FACE_OUTER_BOUND ( 'NONE', #137, .T. ) ;
#255 = PRODUCT_DEFINITION ( 'UNKNOWN', '', #79, #75 ) ;
#256 = PERSON_AND_ORGANIZATION ( #64, #205 ) ;
#257 = CIRCLE ( 'NONE', #286, 2.500000000000002220 ) ;
#258 = DATE_AND_TIME ( #12, #155 ) ;
#259 = DATE_TIME_ROLE ( 'creation_date' ) ;
#260 =( NAMED_UNIT ( * ) SI_UNIT ( $, .STERADIAN. ) SOLID_ANGLE_UNIT ( ) );
#261 = CIRCLE ( 'NONE', #228, 2.500000000000002220 ) ;
#262 =( NAMED_UNIT ( * ) PLANE_ANGLE_UNIT ( ) SI_UNIT ( $, .RADIAN. ) );
#263 = EDGE_CURVE ( 'NONE', #140, #20, #216, .T. ) ;
#264 = AXIS2_PLACEMENT_3D ( 'NONE', #190, #144, #207 ) ;
#265 = EDGE_LOOP ( 'NONE', ( #70, #203 ) ) ;
#266 = APPROVAL ( #17, 'UNSPECIFIED' ) ;
#267 = EDGE_LOOP ( 'NONE', ( #47, #287, #46 ) ) ;
#268 = AXIS2_PLACEMENT_3D ( 'NONE', #38, #105, #218 ) ;
#269 = DIRECTION ( 'NONE',  ( -3.491481338843133355E-15, 1.224646799147353207E-16, -1.000000000000000000 ) ) ;
#270 = CARTESIAN_POINT ( 'NONE',  ( 1.728283262727351074E-13, -6.062001655779398511E-15, 49.50000000000000000 ) ) ;
#271 = ADVANCED_FACE ( 'NONE', ( #170 ), #219, .F. ) ;
#272 = CARTESIAN_POINT ( 'NONE',  ( 1.745740669421566678E-13, -6.123233995736766085E-15, 50.00000000000000000 ) ) ;
#273 = LOCAL_TIME ( 9, 46, 57.00000000000000000, #35 ) ;
#274 = CARTESIAN_POINT ( 'NONE',  ( 1.748189963019861381E-13, -2.000000000000008438, 50.00000000000000000 ) ) ;
#275 = PERSON_AND_ORGANIZATION_ROLE ( 'classification_officer' ) ;
#276 = DIRECTION ( 'NONE',  ( -4.275831445896958607E-31, -1.000000000000000000, -1.224646799147353207E-16 ) ) ;
#277 = EDGE_CURVE ( 'NONE', #181, #20, #172, .T. ) ;
#278 = DATE_AND_TIME ( #127, #188 ) ;
#279 = MECHANICAL_CONTEXT ( 'NONE', #124, 'mechanical' ) ;
#280 = AXIS2_PLACEMENT_3D ( 'NONE', #42, #192, #174 ) ;
#281 = PERSON_AND_ORGANIZATION ( #64, #205 ) ;
#282 = CC_DESIGN_DATE_AND_TIME_ASSIGNMENT ( #126, #77, ( #250 ) ) ;
#283 = CARTESIAN_POINT ( 'NONE',  ( 1.728283262727351074E-13, -6.062001655779398511E-15, 49.50000000000000000 ) ) ;
#284 = EDGE_CURVE ( 'NONE', #112, #23, #182, .T. ) ;
#285 = EDGE_LOOP ( 'NONE', ( #197, #152 ) ) ;
#286 = AXIS2_PLACEMENT_3D ( 'NONE', #283, #150, #40 ) ;
#287 = ORIENTED_EDGE ( 'NONE', *, *, #189, .T. ) ;
ENDSEC;
END-ISO-10303-21;
