ISO-10303-21;
HEADER;
FILE_DESCRIPTION (( 'STEP AP203' ),
    '1' );
FILE_NAME ('63703.step',
    '2021-11-15T14:53:35',
    ( '' ),
    ( '' ),
    'SwSTEP 2.0',
    'SolidWorks 2019',
    '' );
FILE_SCHEMA (( 'CONFIG_CONTROL_DESIGN' ));
ENDSEC;

DATA;
#1 = APPROVAL ( #63, 'UNSPECIFIED' ) ;
#2 = APPROVAL_DATE_TIME ( #186, #123 ) ;
#3 = CLOSED_SHELL ( 'NONE', ( #20, #16, #209 ) ) ;
#4 = CIRCLE ( 'NONE', #184, 3.000000000000002665 ) ;
#5 = UNCERTAINTY_MEASURE_WITH_UNIT (LENGTH_MEASURE( 1.000000000000000082E-05 ), #96, 'distance_accuracy_value', 'NONE');
#6 = EDGE_LOOP ( 'NONE', ( #103 ) ) ;
#7 = CC_DESIGN_PERSON_AND_ORGANIZATION_ASSIGNMENT ( #188, #91, ( #46 ) ) ;
#8 = VERTEX_POINT ( 'NONE', #140 ) ;
#9 = PRODUCT ( '63703', '63703', '', ( #97 ) ) ;
#10 = DIRECTION ( 'NONE',  ( 3.491481338843133355E-15, -1.224646799147353207E-16, 1.000000000000000000 ) ) ;
#11 = DIRECTION ( 'NONE',  ( -3.491481338843133355E-15, 1.224646799147353207E-16, -1.000000000000000000 ) ) ;
#12 = FACE_OUTER_BOUND ( 'NONE', #119, .T. ) ;
#13 = PLANE ( 'NONE',  #114 ) ;
#14 = PERSON_AND_ORGANIZATION_ROLE ( 'design_supplier' ) ;
#15 = DATE_AND_TIME ( #132, #142 ) ;
#16 = ADVANCED_FACE ( 'NONE', ( #193, #102 ), #98, .T. ) ;
#17 = APPLICATION_PROTOCOL_DEFINITION ( 'international standard', 'config_control_design', 1994, #150 ) ;
#18 = EDGE_LOOP ( 'NONE', ( #66 ) ) ;
#19 = EDGE_LOOP ( 'NONE', ( #52 ) ) ;
#20 = ADVANCED_FACE ( 'NONE', ( #50 ), #85, .T. ) ;
#21 = CC_DESIGN_DATE_AND_TIME_ASSIGNMENT ( #94, #170, ( #136 ) ) ;
#22 = VERTEX_POINT ( 'NONE', #158 ) ;
#23 = DIRECTION ( 'NONE',  ( 3.491481338843133355E-15, -1.244996138440932305E-16, 1.000000000000000000 ) ) ;
#24 = MANIFOLD_SOLID_BREP ( 'Corps-Déplacer/Copier1[2]', #3 ) ;
#25 = CARTESIAN_POINT ( 'NONE',  ( 4.538925740496072731E-14, -1.618494979973211750E-15, 12.99999999999999822 ) ) ;
#26 = DIRECTION ( 'NONE',  ( 3.491481338843133355E-15, -1.224646799147353207E-16, 1.000000000000000000 ) ) ;
#27 = DIRECTION ( 'NONE',  ( 0.0000000000000000000, 0.0000000000000000000, 1.000000000000000000 ) ) ;
#28 = AXIS2_PLACEMENT_3D ( 'NONE', #40, #23, #107 ) ;
#29 = DATE_TIME_ROLE ( 'creation_date' ) ;
#30 = CARTESIAN_POINT ( 'NONE',  ( 5.510913009090914186E-14, 2.999999999999997780, 15.78388218141500765 ) ) ;
#31 = ADVANCED_FACE ( 'NONE', ( #53, #38 ), #61, .F. ) ;
#32 = PERSON_AND_ORGANIZATION_ROLE ( 'design_owner' ) ;
#33 = EDGE_CURVE ( 'NONE', #145, #145, #220, .T. ) ;
#34 = EDGE_LOOP ( 'NONE', ( #36 ) ) ;
#35 = ORIENTED_EDGE ( 'NONE', *, *, #55, .T. ) ;
#36 = ORIENTED_EDGE ( 'NONE', *, *, #161, .F. ) ;
#37 = APPLICATION_CONTEXT ( 'configuration controlled 3d designs of mechanical parts and assemblies' ) ;
#38 = FACE_OUTER_BOUND ( 'NONE', #19, .T. ) ;
#39 = DIRECTION ( 'NONE',  ( -3.491481338843133355E-15, 1.224646799147353207E-16, -1.000000000000000000 ) ) ;
#40 = CARTESIAN_POINT ( 'NONE',  ( 4.538925740496072731E-14, -1.734723475976807094E-15, 12.99999999999999822 ) ) ;
#41 = DIRECTION ( 'NONE',  ( -3.491481338843133355E-15, 1.224646799147353207E-16, -1.000000000000000000 ) ) ;
#42 = DIRECTION ( 'NONE',  ( 0.0000000000000000000, 1.000000000000000000, 0.0000000000000000000 ) ) ;
#43 = CC_DESIGN_PERSON_AND_ORGANIZATION_ASSIGNMENT ( #221, #201, ( #131 ) ) ;
#44 = PERSON_AND_ORGANIZATION ( #177, #173 ) ;
#45 = DIRECTION ( 'NONE',  ( 1.000000000000000000, 0.0000000000000000000, 0.0000000000000000000 ) ) ;
#46 = PRODUCT_DEFINITION_FORMATION_WITH_SPECIFIED_SOURCE ( 'ANY', '', #9, .NOT_KNOWN. ) ;
#47 = DATE_AND_TIME ( #133, #120 ) ;
#48 = COORDINATED_UNIVERSAL_TIME_OFFSET ( 1, 0, .AHEAD. ) ;
#49 = DATE_AND_TIME ( #134, #83 ) ;
#50 = FACE_OUTER_BOUND ( 'NONE', #122, .T. ) ;
#51 = EDGE_CURVE ( 'NONE', #195, #195, #215, .T. ) ;
#52 = ORIENTED_EDGE ( 'NONE', *, *, #165, .T. ) ;
#53 = FACE_OUTER_BOUND ( 'NONE', #135, .T. ) ;
#54 = FACE_OUTER_BOUND ( 'NONE', #65, .T. ) ;
#55 = EDGE_CURVE ( 'NONE', #22, #22, #211, .T. ) ;
#56 = CARTESIAN_POINT ( 'NONE',  ( 1.990144363140586139E-13, 1.874699728327313799E-32, 57.00000000000000000 ) ) ;
#57 = FACE_OUTER_BOUND ( 'NONE', #34, .T. ) ;
#58 = CARTESIAN_POINT ( 'NONE',  ( 4.538925740496072731E-14, -2.500000000000002220, 12.99999999999999822 ) ) ;
#59 = PERSON_AND_ORGANIZATION_ROLE ( 'classification_officer' ) ;
#60 = VERTEX_POINT ( 'NONE', #151 ) ;
#61 = TOROIDAL_SURFACE ( 'NONE', #28, 10.50000000000000000, 8.000000000000000000 ) ;
#62 = COORDINATED_UNIVERSAL_TIME_OFFSET ( 1, 0, .AHEAD. ) ;
#63 = APPROVAL_STATUS ( 'not_yet_approved' ) ;
#64 = AXIS2_PLACEMENT_3D ( 'NONE', #180, #198, #182 ) ;
#65 = EDGE_LOOP ( 'NONE', ( #80 ) ) ;
#66 = ORIENTED_EDGE ( 'NONE', *, *, #161, .T. ) ;
#67 = FACE_BOUND ( 'NONE', #79, .T. ) ;
#68 = FACE_OUTER_BOUND ( 'NONE', #6, .T. ) ;
#69 = FACE_OUTER_BOUND ( 'NONE', #157, .T. ) ;
#70 = AXIS2_PLACEMENT_3D ( 'NONE', #108, #159, #214 ) ;
#71 = CARTESIAN_POINT ( 'NONE',  ( 0.0000000000000000000, 0.0000000000000000000, 0.0000000000000000000 ) ) ;
#72 = DIRECTION ( 'NONE',  ( -4.275831445896958607E-31, -1.000000000000000000, -1.224646799147353207E-16 ) ) ;
#73 = SECURITY_CLASSIFICATION_LEVEL ( 'unclassified' ) ;
#74 = APPROVAL_STATUS ( 'not_yet_approved' ) ;
#75 = AXIS2_PLACEMENT_3D ( 'NONE', #126, #196, #42 ) ;
#76 = APPROVAL_ROLE ( '' ) ;
#77 = CC_DESIGN_PERSON_AND_ORGANIZATION_ASSIGNMENT ( #92, #32, ( #9 ) ) ;
#78 = AXIS2_PLACEMENT_3D ( 'NONE', #84, #163, #210 ) ;
#79 = EDGE_LOOP ( 'NONE', ( #35 ) ) ;
#80 = ORIENTED_EDGE ( 'NONE', *, *, #181, .F. ) ;
#81 = DIRECTION ( 'NONE',  ( -4.275831445896958607E-31, -1.000000000000000000, -1.224646799147353207E-16 ) ) ;
#82 =( GEOMETRIC_REPRESENTATION_CONTEXT ( 3 ) GLOBAL_UNCERTAINTY_ASSIGNED_CONTEXT ( ( #5 ) ) GLOBAL_UNIT_ASSIGNED_CONTEXT ( ( #96, #167, #218 ) ) REPRESENTATION_CONTEXT ( 'NONE', 'WORKASPACE' ) );
#83 = LOCAL_TIME ( 15, 53, 35.00000000000000000, #189 ) ;
#84 = CARTESIAN_POINT ( 'NONE',  ( 4.538925740496072731E-14, -1.618494979973211750E-15, 12.99999999999999822 ) ) ;
#85 = PLANE ( 'NONE',  #162 ) ;
#86 = DIRECTION ( 'NONE',  ( 0.0000000000000000000, -1.000000000000000000, 0.0000000000000000000 ) ) ;
#87 = CC_DESIGN_PERSON_AND_ORGANIZATION_ASSIGNMENT ( #146, #59, ( #136 ) ) ;
#88 = LOCAL_TIME ( 15, 53, 35.00000000000000000, #204 ) ;
#89 = DIRECTION ( 'NONE',  ( 3.491481338843133355E-15, -1.224646799147353207E-16, 1.000000000000000000 ) ) ;
#90 = MANIFOLD_SOLID_BREP ( 'Corps-Déplacer/Copier1[1]', #105 ) ;
#91 = PERSON_AND_ORGANIZATION_ROLE ( 'creator' ) ;
#92 = PERSON_AND_ORGANIZATION ( #177, #173 ) ;
#93 = CIRCLE ( 'NONE', #70, 3.000000000000000000 ) ;
#94 = DATE_AND_TIME ( #130, #88 ) ;
#95 = PRODUCT_RELATED_PRODUCT_CATEGORY ( 'detail', '', ( #9 ) ) ;
#96 =( LENGTH_UNIT ( ) NAMED_UNIT ( * ) SI_UNIT ( .MILLI., .METRE. ) );
#97 = MECHANICAL_CONTEXT ( 'NONE', #150, 'mechanical' ) ;
#98 = CYLINDRICAL_SURFACE ( 'NONE', #125, 2.500000000000000444 ) ;
#99 = ORIENTED_EDGE ( 'NONE', *, *, #51, .F. ) ;
#100 = ADVANCED_BREP_SHAPE_REPRESENTATION ( '63703', ( #90, #24, #110 ), #82 ) ;
#101 = APPROVAL_PERSON_ORGANIZATION ( #115, #137, #153 ) ;
#102 = FACE_OUTER_BOUND ( 'NONE', #178, .T. ) ;
#103 = ORIENTED_EDGE ( 'NONE', *, *, #181, .T. ) ;
#104 = CARTESIAN_POINT ( 'NONE',  ( 4.538925740496072731E-14, -2.500000000000002220, 12.99999999999999822 ) ) ;
#105 = CLOSED_SHELL ( 'NONE', ( #118, #111, #190, #31, #176 ) ) ;
#106 = DIRECTION ( 'NONE',  ( 3.491481338843133355E-15, -1.244996138440932305E-16, 1.000000000000000000 ) ) ;
#107 = DIRECTION ( 'NONE',  ( -4.404297637062081908E-31, -1.000000000000000000, -1.244996138440932305E-16 ) ) ;
#108 = CARTESIAN_POINT ( 'NONE',  ( 5.510913009090914186E-14, -2.081315732550427583E-15, 15.78388218141500765 ) ) ;
#109 = DIRECTION ( 'NONE',  ( -4.275831445896958607E-31, -1.000000000000000000, -1.224646799147353207E-16 ) ) ;
#110 = AXIS2_PLACEMENT_3D ( 'NONE', #116, #27, #45 ) ;
#111 = ADVANCED_FACE ( 'NONE', ( #54, #67 ), #152, .T. ) ;
#112 = APPROVAL_STATUS ( 'not_yet_approved' ) ;
#113 = AXIS2_PLACEMENT_3D ( 'NONE', #124, #212, #179 ) ;
#114 = AXIS2_PLACEMENT_3D ( 'NONE', #56, #41, #183 ) ;
#115 = PERSON_AND_ORGANIZATION ( #177, #173 ) ;
#116 = CARTESIAN_POINT ( 'NONE',  ( 0.0000000000000000000, 0.0000000000000000000, 0.0000000000000000000 ) ) ;
#117 = APPROVAL_DATE_TIME ( #49, #1 ) ;
#118 = ADVANCED_FACE ( 'NONE', ( #68, #12 ), #164, .T. ) ;
#119 = EDGE_LOOP ( 'NONE', ( #191 ) ) ;
#120 = LOCAL_TIME ( 15, 53, 35.00000000000000000, #149 ) ;
#121 = ORIENTED_EDGE ( 'NONE', *, *, #33, .F. ) ;
#122 = EDGE_LOOP ( 'NONE', ( #174 ) ) ;
#123 = APPROVAL ( #112, 'UNSPECIFIED' ) ;
#124 = CARTESIAN_POINT ( 'NONE',  ( 1.990144363140586139E-13, -6.980486755139912911E-15, 57.00000000000000000 ) ) ;
#125 = AXIS2_PLACEMENT_3D ( 'NONE', #175, #154, #207 ) ;
#126 = CARTESIAN_POINT ( 'NONE',  ( 1.990144363140586139E-13, -6.980486755139912911E-15, 57.00000000000000000 ) ) ;
#127 = CC_DESIGN_APPROVAL ( #137, ( #46 ) ) ;
#128 = CARTESIAN_POINT ( 'NONE',  ( 1.972686956446370535E-13, -6.919254415182545337E-15, 56.50000000000000000 ) ) ;
#129 = DIRECTION ( 'NONE',  ( 0.0000000000000000000, 1.000000000000000000, 0.0000000000000000000 ) ) ;
#130 = CALENDAR_DATE ( 2021, 15, 11 ) ;
#131 = PRODUCT_DEFINITION ( 'UNKNOWN', '', #46, #192 ) ;
#132 = CALENDAR_DATE ( 2021, 15, 11 ) ;
#133 = CALENDAR_DATE ( 2021, 15, 11 ) ;
#134 = CALENDAR_DATE ( 2021, 15, 11 ) ;
#135 = EDGE_LOOP ( 'NONE', ( #139 ) ) ;
#136 = SECURITY_CLASSIFICATION ( '', '', #73 ) ;
#137 = APPROVAL ( #74, 'UNSPECIFIED' ) ;
#138 = ORIENTED_EDGE ( 'NONE', *, *, #55, .F. ) ;
#139 = ORIENTED_EDGE ( 'NONE', *, *, #33, .T. ) ;
#140 = CARTESIAN_POINT ( 'NONE',  ( -2.173440392149138805E-30, -2.500000000000000000, -6.224980692204661034E-16 ) ) ;
#141 = CARTESIAN_POINT ( 'NONE',  ( 4.538925740496073362E-14, 2.249639673992782033E-32, 13.00000000000000000 ) ) ;
#142 = LOCAL_TIME ( 15, 53, 35.00000000000000000, #48 ) ;
#143 = PRODUCT_DEFINITION_SHAPE ( 'NONE', 'NONE',  #131 ) ;
#144 = PLANE ( 'NONE',  #222 ) ;
#145 = VERTEX_POINT ( 'NONE', #58 ) ;
#146 = PERSON_AND_ORGANIZATION ( #177, #173 ) ;
#147 = CIRCLE ( 'NONE', #64, 2.500000000000000000 ) ;
#148 = CC_DESIGN_PERSON_AND_ORGANIZATION_ASSIGNMENT ( #172, #14, ( #46 ) ) ;
#149 = COORDINATED_UNIVERSAL_TIME_OFFSET ( 1, 0, .AHEAD. ) ;
#150 = APPLICATION_CONTEXT ( 'configuration controlled 3d designs of mechanical parts and assemblies' ) ;
#151 = CARTESIAN_POINT ( 'NONE',  ( 1.972686956446370535E-13, 2.999999999999995559, 56.50000000000000000 ) ) ;
#152 = CONICAL_SURFACE ( 'NONE', #75, 2.500000000000002665, 0.7853981633974479459 ) ;
#153 = APPROVAL_ROLE ( '' ) ;
#154 = DIRECTION ( 'NONE',  ( 3.491481338843133355E-15, -1.244996138440932305E-16, 1.000000000000000000 ) ) ;
#155 = AXIS2_PLACEMENT_3D ( 'NONE', #25, #106, #86 ) ;
#156 = EDGE_LOOP ( 'NONE', ( #121 ) ) ;
#157 = EDGE_LOOP ( 'NONE', ( #138 ) ) ;
#158 = CARTESIAN_POINT ( 'NONE',  ( 1.990144363140586139E-13, 2.499999999999995559, 57.00000000000000000 ) ) ;
#159 = DIRECTION ( 'NONE',  ( -3.491481338843133355E-15, 1.244996138440932305E-16, -1.000000000000000000 ) ) ;
#160 = FACE_OUTER_BOUND ( 'NONE', #156, .T. ) ;
#161 = EDGE_CURVE ( 'NONE', #8, #8, #147, .T. ) ;
#162 = AXIS2_PLACEMENT_3D ( 'NONE', #141, #89, #109 ) ;
#163 = DIRECTION ( 'NONE',  ( 3.491481338843133355E-15, -1.244996138440932305E-16, 1.000000000000000000 ) ) ;
#164 = CYLINDRICAL_SURFACE ( 'NONE', #168, 3.000000000000000000 ) ;
#165 = EDGE_CURVE ( 'NONE', #208, #208, #93, .T. ) ;
#166 = CALENDAR_DATE ( 2021, 15, 11 ) ;
#167 =( NAMED_UNIT ( * ) PLANE_ANGLE_UNIT ( ) SI_UNIT ( $, .RADIAN. ) );
#168 = AXIS2_PLACEMENT_3D ( 'NONE', #71, #39, #199 ) ;
#169 = SHAPE_DEFINITION_REPRESENTATION ( #143, #100 ) ;
#170 = DATE_TIME_ROLE ( 'classification_date' ) ;
#171 = APPROVAL_DATE_TIME ( #47, #137 ) ;
#172 = PERSON_AND_ORGANIZATION ( #177, #173 ) ;
#173 = ORGANIZATION ( 'UNSPECIFIED', 'UNSPECIFIED', '' ) ;
#174 = ORIENTED_EDGE ( 'NONE', *, *, #51, .T. ) ;
#175 = CARTESIAN_POINT ( 'NONE',  ( 0.0000000000000000000, 0.0000000000000000000, 0.0000000000000000000 ) ) ;
#176 = ADVANCED_FACE ( 'NONE', ( #160 ), #144, .F. ) ;
#177 = PERSON ( 'UNSPECIFIED', 'UNSPECIFIED', 'UNSPECIFIED', ('UNSPECIFIED'), ('UNSPECIFIED'), ('UNSPECIFIED') ) ;
#178 = EDGE_LOOP ( 'NONE', ( #99 ) ) ;
#179 = DIRECTION ( 'NONE',  ( 0.0000000000000000000, 1.000000000000000000, 0.0000000000000000000 ) ) ;
#180 = CARTESIAN_POINT ( 'NONE',  ( -1.086720196074569403E-30, 3.875038461832082960E-32, -3.112490346102330517E-16 ) ) ;
#181 = EDGE_CURVE ( 'NONE', #60, #60, #4, .T. ) ;
#182 = DIRECTION ( 'NONE',  ( -4.346880784298277610E-31, -1.000000000000000000, -1.244996138440932305E-16 ) ) ;
#183 = DIRECTION ( 'NONE',  ( 4.275831445896958607E-31, 1.000000000000000000, 1.224646799147353207E-16 ) ) ;
#184 = AXIS2_PLACEMENT_3D ( 'NONE', #128, #11, #129 ) ;
#185 = CARTESIAN_POINT ( 'NONE',  ( -3.206816838010677856E-31, 1.124799933034399755E-32, -9.184688465421452921E-17 ) ) ;
#186 = DATE_AND_TIME ( #166, #194 ) ;
#187 = CC_DESIGN_APPROVAL ( #123, ( #131 ) ) ;
#188 = PERSON_AND_ORGANIZATION ( #177, #173 ) ;
#189 = COORDINATED_UNIVERSAL_TIME_OFFSET ( 1, 0, .AHEAD. ) ;
#190 = ADVANCED_FACE ( 'NONE', ( #69 ), #13, .F. ) ;
#191 = ORIENTED_EDGE ( 'NONE', *, *, #165, .F. ) ;
#192 = DESIGN_CONTEXT ( 'detailed design', #37, 'design' ) ;
#193 = FACE_OUTER_BOUND ( 'NONE', #18, .T. ) ;
#194 = LOCAL_TIME ( 15, 53, 35.00000000000000000, #62 ) ;
#195 = VERTEX_POINT ( 'NONE', #104 ) ;
#196 = DIRECTION ( 'NONE',  ( -3.491481338843133355E-15, 1.224646799147353207E-16, -1.000000000000000000 ) ) ;
#197 = APPROVAL_PERSON_ORGANIZATION ( #216, #123, #76 ) ;
#198 = DIRECTION ( 'NONE',  ( 3.491481338843133355E-15, -1.244996138440932305E-16, 1.000000000000000000 ) ) ;
#199 = DIRECTION ( 'NONE',  ( 4.275831445896959482E-31, 1.000000000000000000, 1.224646799147353207E-16 ) ) ;
#200 = PLANE ( 'NONE',  #205 ) ;
#201 = PERSON_AND_ORGANIZATION_ROLE ( 'creator' ) ;
#202 = CC_DESIGN_SECURITY_CLASSIFICATION ( #136, ( #46 ) ) ;
#203 = APPLICATION_PROTOCOL_DEFINITION ( 'international standard', 'config_control_design', 1994, #37 ) ;
#204 = COORDINATED_UNIVERSAL_TIME_OFFSET ( 1, 0, .AHEAD. ) ;
#205 = AXIS2_PLACEMENT_3D ( 'NONE', #185, #26, #72 ) ;
#206 = APPROVAL_ROLE ( '' ) ;
#207 = DIRECTION ( 'NONE',  ( -4.346880784298277610E-31, -1.000000000000000000, -1.244996138440932305E-16 ) ) ;
#208 = VERTEX_POINT ( 'NONE', #30 ) ;
#209 = ADVANCED_FACE ( 'NONE', ( #57 ), #200, .F. ) ;
#210 = DIRECTION ( 'NONE',  ( 0.0000000000000000000, -1.000000000000000000, 0.0000000000000000000 ) ) ;
#211 = CIRCLE ( 'NONE', #113, 2.500000000000002665 ) ;
#212 = DIRECTION ( 'NONE',  ( -3.491481338843133355E-15, 1.224646799147353207E-16, -1.000000000000000000 ) ) ;
#213 = CARTESIAN_POINT ( 'NONE',  ( 4.538925740496073362E-14, 2.249639673992782033E-32, 13.00000000000000000 ) ) ;
#214 = DIRECTION ( 'NONE',  ( 0.0000000000000000000, 1.000000000000000000, 0.0000000000000000000 ) ) ;
#215 = CIRCLE ( 'NONE', #78, 2.500000000000000444 ) ;
#216 = PERSON_AND_ORGANIZATION ( #177, #173 ) ;
#217 = CC_DESIGN_APPROVAL ( #1, ( #136 ) ) ;
#218 =( NAMED_UNIT ( * ) SI_UNIT ( $, .STERADIAN. ) SOLID_ANGLE_UNIT ( ) );
#219 = CC_DESIGN_DATE_AND_TIME_ASSIGNMENT ( #15, #29, ( #131 ) ) ;
#220 = CIRCLE ( 'NONE', #155, 2.500000000000000444 ) ;
#221 = PERSON_AND_ORGANIZATION ( #177, #173 ) ;
#222 = AXIS2_PLACEMENT_3D ( 'NONE', #213, #10, #81 ) ;
#223 = APPROVAL_PERSON_ORGANIZATION ( #44, #1, #206 ) ;
ENDSEC;
END-ISO-10303-21;
