ISO-10303-21;
HEADER;
FILE_DESCRIPTION (( 'STEP AP203' ),
    '1' );
FILE_NAME ('63701.step',
    '2021-11-15T14:53:35',
    ( '' ),
    ( '' ),
    'SwSTEP 2.0',
    'SolidWorks 2019',
    '' );
FILE_SCHEMA (( 'CONFIG_CONTROL_DESIGN' ));
ENDSEC;

DATA;
#1 = ADVANCED_FACE ( 'NONE', ( #192 ), #170, .T. ) ;
#2 = VERTEX_POINT ( 'NONE', #182 ) ;
#3 = AXIS2_PLACEMENT_3D ( 'NONE', #194, #24, #14 ) ;
#4 = CC_DESIGN_APPROVAL ( #207, ( #62 ) ) ;
#5 = EDGE_LOOP ( 'NONE', ( #98 ) ) ;
#6 = EDGE_CURVE ( 'NONE', #105, #105, #177, .T. ) ;
#7 = DIRECTION ( 'NONE',  ( 3.491481338843133355E-15, -1.224646799147353207E-16, 1.000000000000000000 ) ) ;
#8 = ADVANCED_FACE ( 'NONE', ( #54, #119 ), #179, .T. ) ;
#9 = PLANE ( 'NONE',  #64 ) ;
#10 = PRODUCT ( '63701', '63701', '', ( #200 ) ) ;
#11 = CARTESIAN_POINT ( 'NONE',  ( -3.206816838010677856E-31, 1.124799933034399755E-32, -9.184688465421452921E-17 ) ) ;
#12 = DIRECTION ( 'NONE',  ( -3.491481338843133355E-15, 1.224646799147353207E-16, -1.000000000000000000 ) ) ;
#13 = AXIS2_PLACEMENT_3D ( 'NONE', #152, #123, #141 ) ;
#14 = DIRECTION ( 'NONE',  ( -4.346880784298277610E-31, -1.000000000000000000, -1.244996138440932305E-16 ) ) ;
#15 = CARTESIAN_POINT ( 'NONE',  ( 1.972686956446370535E-13, 2.999999999999995559, 56.50000000000000000 ) ) ;
#16 = APPROVAL_STATUS ( 'not_yet_approved' ) ;
#17 = DIRECTION ( 'NONE',  ( 0.0000000000000000000, 0.0000000000000000000, 1.000000000000000000 ) ) ;
#18 = COORDINATED_UNIVERSAL_TIME_OFFSET ( 1, 0, .AHEAD. ) ;
#19 = ORIENTED_EDGE ( 'NONE', *, *, #6, .T. ) ;
#20 = CARTESIAN_POINT ( 'NONE',  ( 3.840629472727446691E-14, 2.249639673992782306E-32, 11.00000000000000000 ) ) ;
#21 = APPLICATION_CONTEXT ( 'configuration controlled 3d designs of mechanical parts and assemblies' ) ;
#22 = ADVANCED_FACE ( 'NONE', ( #175 ), #9, .F. ) ;
#23 = VERTEX_POINT ( 'NONE', #74 ) ;
#24 = DIRECTION ( 'NONE',  ( 3.491481338843133355E-15, -1.244996138440932305E-16, 1.000000000000000000 ) ) ;
#25 = DIRECTION ( 'NONE',  ( -4.346880784298278486E-31, -1.000000000000000000, -1.244996138440932305E-16 ) ) ;
#26 = CYLINDRICAL_SURFACE ( 'NONE', #3, 2.000000000000000000 ) ;
#27 = AXIS2_PLACEMENT_3D ( 'NONE', #174, #37, #154 ) ;
#28 = CARTESIAN_POINT ( 'NONE',  ( 5.192874380620788558E-14, 2.999999999999997780, 14.87298334620741258 ) ) ;
#29 = PERSON_AND_ORGANIZATION ( #31, #135 ) ;
#30 = TOROIDAL_SURFACE ( 'NONE', #13, 10.00000000000000000, 8.000000000000000000 ) ;
#31 = PERSON ( 'UNSPECIFIED', 'UNSPECIFIED', 'UNSPECIFIED', ('UNSPECIFIED'), ('UNSPECIFIED'), ('UNSPECIFIED') ) ;
#32 = CC_DESIGN_PERSON_AND_ORGANIZATION_ASSIGNMENT ( #145, #91, ( #143 ) ) ;
#33 = CALENDAR_DATE ( 2021, 15, 11 ) ;
#34 = ORIENTED_EDGE ( 'NONE', *, *, #118, .F. ) ;
#35 = LOCAL_TIME ( 15, 53, 35.00000000000000000, #108 ) ;
#36 = ORIENTED_EDGE ( 'NONE', *, *, #159, .T. ) ;
#37 = DIRECTION ( 'NONE',  ( -3.491481338843133355E-15, 1.224646799147353207E-16, -1.000000000000000000 ) ) ;
#38 = CARTESIAN_POINT ( 'NONE',  ( 1.990144363140586139E-13, -6.980486755139912911E-15, 57.00000000000000000 ) ) ;
#39 = CARTESIAN_POINT ( 'NONE',  ( 1.990144363140586139E-13, 1.874699728327313799E-32, 57.00000000000000000 ) ) ;
#40 = FACE_OUTER_BOUND ( 'NONE', #114, .T. ) ;
#41 = FACE_OUTER_BOUND ( 'NONE', #96, .T. ) ;
#42 = PRODUCT_RELATED_PRODUCT_CATEGORY ( 'detail', '', ( #10 ) ) ;
#43 = PERSON_AND_ORGANIZATION_ROLE ( 'creator' ) ;
#44 = APPROVAL_ROLE ( '' ) ;
#45 = DATE_AND_TIME ( #147, #35 ) ;
#46 = PERSON_AND_ORGANIZATION ( #31, #135 ) ;
#47 = CALENDAR_DATE ( 2021, 15, 11 ) ;
#48 = CLOSED_SHELL ( 'NONE', ( #8, #132, #22, #211, #94 ) ) ;
#49 = ORIENTED_EDGE ( 'NONE', *, *, #50, .T. ) ;
#50 = EDGE_CURVE ( 'NONE', #133, #133, #151, .T. ) ;
#51 = CARTESIAN_POINT ( 'NONE',  ( 3.840629472727446060E-14, -2.000000000000000888, 10.99999999999999822 ) ) ;
#52 = DIRECTION ( 'NONE',  ( 3.491481338843133355E-15, -1.224646799147353207E-16, 1.000000000000000000 ) ) ;
#53 = CC_DESIGN_PERSON_AND_ORGANIZATION_ASSIGNMENT ( #46, #43, ( #143 ) ) ;
#54 = FACE_OUTER_BOUND ( 'NONE', #130, .T. ) ;
#55 = CARTESIAN_POINT ( 'NONE',  ( 1.990144363140586139E-13, 2.499999999999995559, 57.00000000000000000 ) ) ;
#56 = CONICAL_SURFACE ( 'NONE', #61, 2.500000000000002665, 0.7853981633974479459 ) ;
#57 = DATE_AND_TIME ( #166, #223 ) ;
#58 = SECURITY_CLASSIFICATION_LEVEL ( 'unclassified' ) ;
#59 = DATE_TIME_ROLE ( 'classification_date' ) ;
#60 = DATE_AND_TIME ( #47, #110 ) ;
#61 = AXIS2_PLACEMENT_3D ( 'NONE', #38, #153, #198 ) ;
#62 = SECURITY_CLASSIFICATION ( '', '', #58 ) ;
#63 = EDGE_LOOP ( 'NONE', ( #168 ) ) ;
#64 = AXIS2_PLACEMENT_3D ( 'NONE', #39, #12, #136 ) ;
#65 = DIRECTION ( 'NONE',  ( -4.275831445896958607E-31, -1.000000000000000000, -1.224646799147353207E-16 ) ) ;
#66 = DIRECTION ( 'NONE',  ( 0.0000000000000000000, 1.000000000000000000, 0.0000000000000000000 ) ) ;
#67 = DIRECTION ( 'NONE',  ( -3.491481338843133355E-15, 1.224646799147353207E-16, -1.000000000000000000 ) ) ;
#68 = CARTESIAN_POINT ( 'NONE',  ( 3.840629472727446060E-14, -1.369495752285025191E-15, 10.99999999999999822 ) ) ;
#69 = CC_DESIGN_SECURITY_CLASSIFICATION ( #62, ( #143 ) ) ;
#70 = FACE_OUTER_BOUND ( 'NONE', #63, .T. ) ;
#71 = FACE_OUTER_BOUND ( 'NONE', #150, .T. ) ;
#72 = PERSON_AND_ORGANIZATION_ROLE ( 'design_owner' ) ;
#73 = AXIS2_PLACEMENT_3D ( 'NONE', #68, #214, #122 ) ;
#74 = CARTESIAN_POINT ( 'NONE',  ( -1.738752313719311044E-30, -2.000000000000000000, -4.979984553763729221E-16 ) ) ;
#75 = COORDINATED_UNIVERSAL_TIME_OFFSET ( 1, 0, .AHEAD. ) ;
#76 = APPROVAL_PERSON_ORGANIZATION ( #112, #207, #204 ) ;
#77 = CARTESIAN_POINT ( 'NONE',  ( 0.0000000000000000000, 0.0000000000000000000, 0.0000000000000000000 ) ) ;
#78 = DESIGN_CONTEXT ( 'detailed design', #107, 'design' ) ;
#79 = CC_DESIGN_PERSON_AND_ORGANIZATION_ASSIGNMENT ( #202, #162, ( #62 ) ) ;
#80 = EDGE_LOOP ( 'NONE', ( #34 ) ) ;
#81 = AXIS2_PLACEMENT_3D ( 'NONE', #210, #67, #66 ) ;
#82 = ORIENTED_EDGE ( 'NONE', *, *, #50, .F. ) ;
#83 = EDGE_LOOP ( 'NONE', ( #36 ) ) ;
#84 = CIRCLE ( 'NONE', #73, 1.999999999999999556 ) ;
#85 = FACE_OUTER_BOUND ( 'NONE', #190, .T. ) ;
#86 = FACE_OUTER_BOUND ( 'NONE', #80, .T. ) ;
#87 = DIRECTION ( 'NONE',  ( 0.0000000000000000000, 1.000000000000000000, 0.0000000000000000000 ) ) ;
#88 = DIRECTION ( 'NONE',  ( 3.491481338843133355E-15, -1.224646799147353207E-16, 1.000000000000000000 ) ) ;
#89 = CC_DESIGN_APPROVAL ( #146, ( #199 ) ) ;
#90 = DIRECTION ( 'NONE',  ( -4.275831445896958607E-31, -1.000000000000000000, -1.224646799147353207E-16 ) ) ;
#91 = PERSON_AND_ORGANIZATION_ROLE ( 'design_supplier' ) ;
#92 = LOCAL_TIME ( 15, 53, 35.00000000000000000, #111 ) ;
#93 =( NAMED_UNIT ( * ) SI_UNIT ( $, .STERADIAN. ) SOLID_ANGLE_UNIT ( ) );
#94 = ADVANCED_FACE ( 'NONE', ( #86 ), #212, .F. ) ;
#95 = DATE_AND_TIME ( #33, #221 ) ;
#96 = EDGE_LOOP ( 'NONE', ( #149 ) ) ;
#97 = AXIS2_PLACEMENT_3D ( 'NONE', #100, #103, #25 ) ;
#98 = ORIENTED_EDGE ( 'NONE', *, *, #115, .F. ) ;
#99 = ORIENTED_EDGE ( 'NONE', *, *, #6, .F. ) ;
#100 = CARTESIAN_POINT ( 'NONE',  ( -8.693761568596553469E-31, 3.100030769465665930E-32, -2.489992276881864611E-16 ) ) ;
#101 = DIRECTION ( 'NONE',  ( 3.491481338843133355E-15, -1.244996138440932305E-16, 1.000000000000000000 ) ) ;
#102 = DIRECTION ( 'NONE',  ( 0.0000000000000000000, 1.000000000000000000, 0.0000000000000000000 ) ) ;
#103 = DIRECTION ( 'NONE',  ( 3.491481338843133355E-15, -1.244996138440932305E-16, 1.000000000000000000 ) ) ;
#104 = APPROVAL ( #16, 'UNSPECIFIED' ) ;
#105 = VERTEX_POINT ( 'NONE', #28 ) ;
#106 = PERSON_AND_ORGANIZATION ( #31, #135 ) ;
#107 = APPLICATION_CONTEXT ( 'configuration controlled 3d designs of mechanical parts and assemblies' ) ;
#108 = COORDINATED_UNIVERSAL_TIME_OFFSET ( 1, 0, .AHEAD. ) ;
#109 = AXIS2_PLACEMENT_3D ( 'NONE', #209, #134, #87 ) ;
#110 = LOCAL_TIME ( 15, 53, 35.00000000000000000, #186 ) ;
#111 = COORDINATED_UNIVERSAL_TIME_OFFSET ( 1, 0, .AHEAD. ) ;
#112 = PERSON_AND_ORGANIZATION ( #31, #135 ) ;
#113 = APPROVAL_DATE_TIME ( #60, #207 ) ;
#114 = EDGE_LOOP ( 'NONE', ( #131 ) ) ;
#115 = EDGE_CURVE ( 'NONE', #217, #217, #195, .T. ) ;
#116 = ORIENTED_EDGE ( 'NONE', *, *, #155, .F. ) ;
#117 = EDGE_LOOP ( 'NONE', ( #19 ) ) ;
#118 = EDGE_CURVE ( 'NONE', #172, #172, #208, .T. ) ;
#119 = FACE_OUTER_BOUND ( 'NONE', #205, .T. ) ;
#120 = AXIS2_PLACEMENT_3D ( 'NONE', #11, #88, #157 ) ;
#121 = DIRECTION ( 'NONE',  ( -3.491481338843133355E-15, 1.224646799147353207E-16, -1.000000000000000000 ) ) ;
#122 = DIRECTION ( 'NONE',  ( 0.0000000000000000000, -1.000000000000000000, 0.0000000000000000000 ) ) ;
#123 = DIRECTION ( 'NONE',  ( 3.491481338843133355E-15, -1.244996138440932305E-16, 1.000000000000000000 ) ) ;
#124 = APPROVAL_DATE_TIME ( #57, #104 ) ;
#125 = CC_DESIGN_DATE_AND_TIME_ASSIGNMENT ( #203, #59, ( #62 ) ) ;
#126 = APPLICATION_PROTOCOL_DEFINITION ( 'international standard', 'config_control_design', 1994, #107 ) ;
#127 =( NAMED_UNIT ( * ) PLANE_ANGLE_UNIT ( ) SI_UNIT ( $, .RADIAN. ) );
#128 = APPROVAL_PERSON_ORGANIZATION ( #29, #146, #44 ) ;
#129 = APPROVAL_STATUS ( 'not_yet_approved' ) ;
#130 = EDGE_LOOP ( 'NONE', ( #49 ) ) ;
#131 = ORIENTED_EDGE ( 'NONE', *, *, #155, .T. ) ;
#132 = ADVANCED_FACE ( 'NONE', ( #71, #158 ), #56, .T. ) ;
#133 = VERTEX_POINT ( 'NONE', #15 ) ;
#134 = DIRECTION ( 'NONE',  ( -3.491481338843133355E-15, 1.244996138440932305E-16, -1.000000000000000000 ) ) ;
#135 = ORGANIZATION ( 'UNSPECIFIED', 'UNSPECIFIED', '' ) ;
#136 = DIRECTION ( 'NONE',  ( 4.275831445896958607E-31, 1.000000000000000000, 1.224646799147353207E-16 ) ) ;
#137 = ADVANCED_BREP_SHAPE_REPRESENTATION ( '63701', ( #171, #167, #156 ), #213 ) ;
#138 = CC_DESIGN_PERSON_AND_ORGANIZATION_ASSIGNMENT ( #219, #222, ( #199 ) ) ;
#139 = PRODUCT_DEFINITION_SHAPE ( 'NONE', 'NONE',  #199 ) ;
#140 = CARTESIAN_POINT ( 'NONE',  ( 3.840629472727446060E-14, -1.369495752285025191E-15, 10.99999999999999822 ) ) ;
#141 = DIRECTION ( 'NONE',  ( -4.405892549638853520E-31, -1.000000000000000000, -1.244996138440932305E-16 ) ) ;
#142 = APPROVAL_ROLE ( '' ) ;
#143 = PRODUCT_DEFINITION_FORMATION_WITH_SPECIFIED_SOURCE ( 'ANY', '', #10, .NOT_KNOWN. ) ;
#144 = CC_DESIGN_PERSON_AND_ORGANIZATION_ASSIGNMENT ( #106, #72, ( #10 ) ) ;
#145 = PERSON_AND_ORGANIZATION ( #31, #135 ) ;
#146 = APPROVAL ( #201, 'UNSPECIFIED' ) ;
#147 = CALENDAR_DATE ( 2021, 15, 11 ) ;
#148 = AXIS2_PLACEMENT_3D ( 'NONE', #197, #52, #90 ) ;
#149 = ORIENTED_EDGE ( 'NONE', *, *, #118, .T. ) ;
#150 = EDGE_LOOP ( 'NONE', ( #82 ) ) ;
#151 = CIRCLE ( 'NONE', #81, 3.000000000000002665 ) ;
#152 = CARTESIAN_POINT ( 'NONE',  ( 3.840629472727446060E-14, -1.734723475976807094E-15, 10.99999999999999822 ) ) ;
#153 = DIRECTION ( 'NONE',  ( -3.491481338843133355E-15, 1.224646799147353207E-16, -1.000000000000000000 ) ) ;
#154 = DIRECTION ( 'NONE',  ( 4.275831445896959482E-31, 1.000000000000000000, 1.224646799147353207E-16 ) ) ;
#155 = EDGE_CURVE ( 'NONE', #23, #23, #187, .T. ) ;
#156 = AXIS2_PLACEMENT_3D ( 'NONE', #77, #17, #160 ) ;
#157 = DIRECTION ( 'NONE',  ( -4.275831445896958607E-31, -1.000000000000000000, -1.224646799147353207E-16 ) ) ;
#158 = FACE_BOUND ( 'NONE', #206, .T. ) ;
#159 = EDGE_CURVE ( 'NONE', #2, #2, #84, .T. ) ;
#160 = DIRECTION ( 'NONE',  ( 1.000000000000000000, 0.0000000000000000000, 0.0000000000000000000 ) ) ;
#161 = AXIS2_PLACEMENT_3D ( 'NONE', #20, #7, #65 ) ;
#162 = PERSON_AND_ORGANIZATION_ROLE ( 'classification_officer' ) ;
#163 = APPROVAL_PERSON_ORGANIZATION ( #164, #104, #142 ) ;
#164 = PERSON_AND_ORGANIZATION ( #31, #135 ) ;
#165 = APPLICATION_PROTOCOL_DEFINITION ( 'international standard', 'config_control_design', 1994, #21 ) ;
#166 = CALENDAR_DATE ( 2021, 15, 11 ) ;
#167 = MANIFOLD_SOLID_BREP ( 'Corps-Déplacer/Copier1[2]', #191 ) ;
#168 = ORIENTED_EDGE ( 'NONE', *, *, #159, .F. ) ;
#169 = UNCERTAINTY_MEASURE_WITH_UNIT (LENGTH_MEASURE( 1.000000000000000082E-05 ), #220, 'distance_accuracy_value', 'NONE');
#170 = PLANE ( 'NONE',  #161 ) ;
#171 = MANIFOLD_SOLID_BREP ( 'Corps-Déplacer/Copier1[1]', #48 ) ;
#172 = VERTEX_POINT ( 'NONE', #51 ) ;
#173 = AXIS2_PLACEMENT_3D ( 'NONE', #140, #101, #196 ) ;
#174 = CARTESIAN_POINT ( 'NONE',  ( 0.0000000000000000000, 0.0000000000000000000, 0.0000000000000000000 ) ) ;
#175 = FACE_OUTER_BOUND ( 'NONE', #5, .T. ) ;
#176 = PLANE ( 'NONE',  #120 ) ;
#177 = CIRCLE ( 'NONE', #109, 3.000000000000000000 ) ;
#178 = CC_DESIGN_APPROVAL ( #104, ( #143 ) ) ;
#179 = CYLINDRICAL_SURFACE ( 'NONE', #27, 3.000000000000000000 ) ;
#180 = SHAPE_DEFINITION_REPRESENTATION ( #139, #137 ) ;
#181 = DATE_TIME_ROLE ( 'creation_date' ) ;
#182 = CARTESIAN_POINT ( 'NONE',  ( 3.840629472727446060E-14, -2.000000000000000888, 10.99999999999999822 ) ) ;
#183 = CALENDAR_DATE ( 2021, 15, 11 ) ;
#184 = ADVANCED_FACE ( 'NONE', ( #40, #70 ), #26, .T. ) ;
#185 = APPROVAL_DATE_TIME ( #45, #146 ) ;
#186 = COORDINATED_UNIVERSAL_TIME_OFFSET ( 1, 0, .AHEAD. ) ;
#187 = CIRCLE ( 'NONE', #97, 2.000000000000000000 ) ;
#188 = ADVANCED_FACE ( 'NONE', ( #85 ), #176, .F. ) ;
#189 = ORIENTED_EDGE ( 'NONE', *, *, #115, .T. ) ;
#190 = EDGE_LOOP ( 'NONE', ( #116 ) ) ;
#191 = CLOSED_SHELL ( 'NONE', ( #1, #184, #188 ) ) ;
#192 = FACE_OUTER_BOUND ( 'NONE', #83, .T. ) ;
#193 = CARTESIAN_POINT ( 'NONE',  ( 1.990144363140586139E-13, -6.980486755139912911E-15, 57.00000000000000000 ) ) ;
#194 = CARTESIAN_POINT ( 'NONE',  ( 0.0000000000000000000, 0.0000000000000000000, 0.0000000000000000000 ) ) ;
#195 = CIRCLE ( 'NONE', #218, 2.500000000000002665 ) ;
#196 = DIRECTION ( 'NONE',  ( 0.0000000000000000000, -1.000000000000000000, 0.0000000000000000000 ) ) ;
#197 = CARTESIAN_POINT ( 'NONE',  ( 3.840629472727446691E-14, 2.249639673992782306E-32, 11.00000000000000000 ) ) ;
#198 = DIRECTION ( 'NONE',  ( 0.0000000000000000000, 1.000000000000000000, 0.0000000000000000000 ) ) ;
#199 = PRODUCT_DEFINITION ( 'UNKNOWN', '', #143, #78 ) ;
#200 = MECHANICAL_CONTEXT ( 'NONE', #21, 'mechanical' ) ;
#201 = APPROVAL_STATUS ( 'not_yet_approved' ) ;
#202 = PERSON_AND_ORGANIZATION ( #31, #135 ) ;
#203 = DATE_AND_TIME ( #183, #92 ) ;
#204 = APPROVAL_ROLE ( '' ) ;
#205 = EDGE_LOOP ( 'NONE', ( #99 ) ) ;
#206 = EDGE_LOOP ( 'NONE', ( #189 ) ) ;
#207 = APPROVAL ( #129, 'UNSPECIFIED' ) ;
#208 = CIRCLE ( 'NONE', #173, 1.999999999999999556 ) ;
#209 = CARTESIAN_POINT ( 'NONE',  ( 5.192874380620788558E-14, -2.216908407004234701E-15, 14.87298334620741258 ) ) ;
#210 = CARTESIAN_POINT ( 'NONE',  ( 1.972686956446370535E-13, -6.919254415182545337E-15, 56.50000000000000000 ) ) ;
#211 = ADVANCED_FACE ( 'NONE', ( #41, #216 ), #30, .F. ) ;
#212 = PLANE ( 'NONE',  #148 ) ;
#213 =( GEOMETRIC_REPRESENTATION_CONTEXT ( 3 ) GLOBAL_UNCERTAINTY_ASSIGNED_CONTEXT ( ( #169 ) ) GLOBAL_UNIT_ASSIGNED_CONTEXT ( ( #220, #127, #93 ) ) REPRESENTATION_CONTEXT ( 'NONE', 'WORKASPACE' ) );
#214 = DIRECTION ( 'NONE',  ( 3.491481338843133355E-15, -1.244996138440932305E-16, 1.000000000000000000 ) ) ;
#215 = CC_DESIGN_DATE_AND_TIME_ASSIGNMENT ( #95, #181, ( #199 ) ) ;
#216 = FACE_OUTER_BOUND ( 'NONE', #117, .T. ) ;
#217 = VERTEX_POINT ( 'NONE', #55 ) ;
#218 = AXIS2_PLACEMENT_3D ( 'NONE', #193, #121, #102 ) ;
#219 = PERSON_AND_ORGANIZATION ( #31, #135 ) ;
#220 =( LENGTH_UNIT ( ) NAMED_UNIT ( * ) SI_UNIT ( .MILLI., .METRE. ) );
#221 = LOCAL_TIME ( 15, 53, 35.00000000000000000, #75 ) ;
#222 = PERSON_AND_ORGANIZATION_ROLE ( 'creator' ) ;
#223 = LOCAL_TIME ( 15, 53, 35.00000000000000000, #18 ) ;
ENDSEC;
END-ISO-10303-21;
