ISO-10303-21;
HEADER;
FILE_DESCRIPTION (( 'STEP AP203' ),
    '1' );
FILE_NAME ('63700.step',
    '2021-11-15T14:53:34',
    ( '' ),
    ( '' ),
    'SwSTEP 2.0',
    'SolidWorks 2019',
    '' );
FILE_SCHEMA (( 'CONFIG_CONTROL_DESIGN' ));
ENDSEC;

DATA;
#1 = DIRECTION ( 'NONE',  ( 3.491481338843133355E-15, -1.244996138440932305E-16, 1.000000000000000000 ) ) ;
#2 = VERTEX_POINT ( 'NONE', #21 ) ;
#3 = CARTESIAN_POINT ( 'NONE',  ( 0.0000000000000000000, 0.0000000000000000000, 0.0000000000000000000 ) ) ;
#4 = EDGE_LOOP ( 'NONE', ( #119 ) ) ;
#5 =( NAMED_UNIT ( * ) SI_UNIT ( $, .STERADIAN. ) SOLID_ANGLE_UNIT ( ) );
#6 = PRODUCT_DEFINITION_FORMATION_WITH_SPECIFIED_SOURCE ( 'ANY', '', #167, .NOT_KNOWN. ) ;
#7 = CC_DESIGN_APPROVAL ( #165, ( #143 ) ) ;
#8 = LOCAL_TIME ( 15, 53, 34.00000000000000000, #103 ) ;
#9 = CC_DESIGN_PERSON_AND_ORGANIZATION_ASSIGNMENT ( #37, #129, ( #167 ) ) ;
#10 = APPROVAL_ROLE ( '' ) ;
#11 = CARTESIAN_POINT ( 'NONE',  ( 0.0000000000000000000, 0.0000000000000000000, 0.0000000000000000000 ) ) ;
#12 = AXIS2_PLACEMENT_3D ( 'NONE', #203, #1, #219 ) ;
#13 = FACE_BOUND ( 'NONE', #135, .T. ) ;
#14 = VERTEX_POINT ( 'NONE', #88 ) ;
#15 = DIRECTION ( 'NONE',  ( 0.0000000000000000000, -1.000000000000000000, 0.0000000000000000000 ) ) ;
#16 = EDGE_CURVE ( 'NONE', #201, #201, #71, .T. ) ;
#17 = FACE_OUTER_BOUND ( 'NONE', #79, .T. ) ;
#18 = ADVANCED_FACE ( 'NONE', ( #180, #147 ), #194, .T. ) ;
#19 = PERSON_AND_ORGANIZATION ( #22, #63 ) ;
#20 = LOCAL_TIME ( 15, 53, 34.00000000000000000, #204 ) ;
#21 = CARTESIAN_POINT ( 'NONE',  ( 1.972686956446370535E-13, 2.999999999999995559, 56.50000000000000000 ) ) ;
#22 = PERSON ( 'UNSPECIFIED', 'UNSPECIFIED', 'UNSPECIFIED', ('UNSPECIFIED'), ('UNSPECIFIED'), ('UNSPECIFIED') ) ;
#23 = PERSON_AND_ORGANIZATION ( #22, #63 ) ;
#24 = EDGE_LOOP ( 'NONE', ( #116 ) ) ;
#25 = DATE_TIME_ROLE ( 'classification_date' ) ;
#26 = APPROVAL_PERSON_ORGANIZATION ( #97, #178, #10 ) ;
#27 = CALENDAR_DATE ( 2021, 15, 11 ) ;
#28 = EDGE_CURVE ( 'NONE', #48, #48, #117, .T. ) ;
#29 = SHAPE_DEFINITION_REPRESENTATION ( #87, #184 ) ;
#30 = EDGE_LOOP ( 'NONE', ( #100 ) ) ;
#31 = EDGE_LOOP ( 'NONE', ( #162 ) ) ;
#32 = ADVANCED_FACE ( 'NONE', ( #74 ), #52, .F. ) ;
#33 = CYLINDRICAL_SURFACE ( 'NONE', #156, 2.999999999999999556 ) ;
#34 = CARTESIAN_POINT ( 'NONE',  ( 4.421503566283302108E-14, 2.999999999999997335, 12.66368952654440427 ) ) ;
#35 = CARTESIAN_POINT ( 'NONE',  ( -3.206816838010677856E-31, 1.124799933034399755E-32, -9.184688465421452921E-17 ) ) ;
#36 = DIRECTION ( 'NONE',  ( 3.491481338843133355E-15, -1.224646799147353207E-16, 1.000000000000000000 ) ) ;
#37 = PERSON_AND_ORGANIZATION ( #22, #63 ) ;
#38 = APPLICATION_PROTOCOL_DEFINITION ( 'international standard', 'config_control_design', 1994, #132 ) ;
#39 = DIRECTION ( 'NONE',  ( 0.0000000000000000000, 0.0000000000000000000, 1.000000000000000000 ) ) ;
#40 = CALENDAR_DATE ( 2021, 15, 11 ) ;
#41 = PRODUCT_RELATED_PRODUCT_CATEGORY ( 'detail', '', ( #167 ) ) ;
#42 = DIRECTION ( 'NONE',  ( 0.0000000000000000000, 1.000000000000000000, 0.0000000000000000000 ) ) ;
#43 = CLOSED_SHELL ( 'NONE', ( #198, #18, #84 ) ) ;
#44 = AXIS2_PLACEMENT_3D ( 'NONE', #64, #134, #42 ) ;
#45 = EDGE_LOOP ( 'NONE', ( #212 ) ) ;
#46 = PLANE ( 'NONE',  #130 ) ;
#47 = EDGE_CURVE ( 'NONE', #14, #14, #136, .T. ) ;
#48 = VERTEX_POINT ( 'NONE', #140 ) ;
#49 = APPROVAL_PERSON_ORGANIZATION ( #148, #165, #95 ) ;
#50 = VERTEX_POINT ( 'NONE', #185 ) ;
#51 = PLANE ( 'NONE',  #98 ) ;
#52 = PLANE ( 'NONE',  #101 ) ;
#53 = UNCERTAINTY_MEASURE_WITH_UNIT (LENGTH_MEASURE( 1.000000000000000082E-05 ), #208, 'distance_accuracy_value', 'NONE');
#54 = APPROVAL_STATUS ( 'not_yet_approved' ) ;
#55 = APPLICATION_PROTOCOL_DEFINITION ( 'international standard', 'config_control_design', 1994, #96 ) ;
#56 = PERSON_AND_ORGANIZATION ( #22, #63 ) ;
#57 = AXIS2_PLACEMENT_3D ( 'NONE', #11, #141, #90 ) ;
#58 = APPROVAL ( #54, 'UNSPECIFIED' ) ;
#59 = DATE_AND_TIME ( #75, #109 ) ;
#60 = ORIENTED_EDGE ( 'NONE', *, *, #16, .F. ) ;
#61 = DATE_AND_TIME ( #173, #82 ) ;
#62 = EDGE_CURVE ( 'NONE', #50, #50, #169, .T. ) ;
#63 = ORGANIZATION ( 'UNSPECIFIED', 'UNSPECIFIED', '' ) ;
#64 = CARTESIAN_POINT ( 'NONE',  ( 4.421503566283302108E-14, -2.315351021120327496E-15, 12.66368952654440427 ) ) ;
#65 = CC_DESIGN_PERSON_AND_ORGANIZATION_ASSIGNMENT ( #146, #211, ( #200 ) ) ;
#66 = AXIS2_PLACEMENT_3D ( 'NONE', #123, #89, #106 ) ;
#67 = ORIENTED_EDGE ( 'NONE', *, *, #150, .F. ) ;
#68 = CARTESIAN_POINT ( 'NONE',  ( 2.793185071074506684E-14, 2.249639673992782580E-32, 8.000000000000000000 ) ) ;
#69 = FACE_OUTER_BOUND ( 'NONE', #145, .T. ) ;
#70 = DIRECTION ( 'NONE',  ( 3.491481338843133355E-15, -1.244996138440932305E-16, 1.000000000000000000 ) ) ;
#71 = CIRCLE ( 'NONE', #44, 2.999999999999999556 ) ;
#72 = DIRECTION ( 'NONE',  ( 0.0000000000000000000, 1.000000000000000000, 0.0000000000000000000 ) ) ;
#73 = CC_DESIGN_DATE_AND_TIME_ASSIGNMENT ( #115, #25, ( #200 ) ) ;
#74 = FACE_OUTER_BOUND ( 'NONE', #45, .T. ) ;
#75 = CALENDAR_DATE ( 2021, 15, 11 ) ;
#76 = CLOSED_SHELL ( 'NONE', ( #207, #215, #205, #102, #32 ) ) ;
#77 = DATE_TIME_ROLE ( 'creation_date' ) ;
#78 = PERSON_AND_ORGANIZATION_ROLE ( 'design_supplier' ) ;
#79 = EDGE_LOOP ( 'NONE', ( #179 ) ) ;
#80 = AXIS2_PLACEMENT_3D ( 'NONE', #154, #196, #188 ) ;
#81 = CARTESIAN_POINT ( 'NONE',  ( 2.793185071074506053E-14, -1.500000000000000000, 7.999999999999998224 ) ) ;
#82 = LOCAL_TIME ( 15, 53, 34.00000000000000000, #189 ) ;
#83 = EDGE_LOOP ( 'NONE', ( #114 ) ) ;
#84 = ADVANCED_FACE ( 'NONE', ( #69 ), #168, .F. ) ;
#85 = FACE_OUTER_BOUND ( 'NONE', #30, .T. ) ;
#86 = FACE_OUTER_BOUND ( 'NONE', #4, .T. ) ;
#87 = PRODUCT_DEFINITION_SHAPE ( 'NONE', 'NONE',  #143 ) ;
#88 = CARTESIAN_POINT ( 'NONE',  ( 2.793185071074506053E-14, -1.500000000000000000, 7.999999999999998224 ) ) ;
#89 = DIRECTION ( 'NONE',  ( 3.491481338843133355E-15, -1.244996138440932305E-16, 1.000000000000000000 ) ) ;
#90 = DIRECTION ( 'NONE',  ( -4.346880784298277610E-31, -1.000000000000000000, -1.244996138440932305E-16 ) ) ;
#91 = CALENDAR_DATE ( 2021, 15, 11 ) ;
#92 = CONICAL_SURFACE ( 'NONE', #195, 2.500000000000002665, 0.7853981633974479459 ) ;
#93 = COORDINATED_UNIVERSAL_TIME_OFFSET ( 1, 0, .AHEAD. ) ;
#94 = CC_DESIGN_PERSON_AND_ORGANIZATION_ASSIGNMENT ( #23, #78, ( #6 ) ) ;
#95 = APPROVAL_ROLE ( '' ) ;
#96 = APPLICATION_CONTEXT ( 'configuration controlled 3d designs of mechanical parts and assemblies' ) ;
#97 = PERSON_AND_ORGANIZATION ( #22, #63 ) ;
#98 = AXIS2_PLACEMENT_3D ( 'NONE', #68, #164, #104 ) ;
#99 = DATE_AND_TIME ( #27, #8 ) ;
#100 = ORIENTED_EDGE ( 'NONE', *, *, #16, .T. ) ;
#101 = AXIS2_PLACEMENT_3D ( 'NONE', #127, #36, #152 ) ;
#102 = ADVANCED_FACE ( 'NONE', ( #199, #85 ), #118, .F. ) ;
#103 = COORDINATED_UNIVERSAL_TIME_OFFSET ( 1, 0, .AHEAD. ) ;
#104 = DIRECTION ( 'NONE',  ( -4.275831445896958607E-31, -1.000000000000000000, -1.224646799147353207E-16 ) ) ;
#105 = DIRECTION ( 'NONE',  ( 0.0000000000000000000, -1.000000000000000000, 0.0000000000000000000 ) ) ;
#106 = DIRECTION ( 'NONE',  ( -4.407578600077156464E-31, -1.000000000000000000, -1.244996138440932305E-16 ) ) ;
#107 = CARTESIAN_POINT ( 'NONE',  ( 0.0000000000000000000, 0.0000000000000000000, 0.0000000000000000000 ) ) ;
#108 = DIRECTION ( 'NONE',  ( -3.491481338843133355E-15, 1.224646799147353207E-16, -1.000000000000000000 ) ) ;
#109 = LOCAL_TIME ( 15, 53, 34.00000000000000000, #93 ) ;
#110 = CC_DESIGN_DATE_AND_TIME_ASSIGNMENT ( #159, #77, ( #143 ) ) ;
#111 = DESIGN_CONTEXT ( 'detailed design', #132, 'design' ) ;
#112 = APPROVAL_STATUS ( 'not_yet_approved' ) ;
#113 = LOCAL_TIME ( 15, 53, 34.00000000000000000, #191 ) ;
#114 = ORIENTED_EDGE ( 'NONE', *, *, #62, .F. ) ;
#115 = DATE_AND_TIME ( #40, #113 ) ;
#116 = ORIENTED_EDGE ( 'NONE', *, *, #28, .T. ) ;
#117 = CIRCLE ( 'NONE', #12, 1.500000000000000000 ) ;
#118 = TOROIDAL_SURFACE ( 'NONE', #66, 9.500000000000000000, 8.000000000000000000 ) ;
#119 = ORIENTED_EDGE ( 'NONE', *, *, #150, .T. ) ;
#120 = ORIENTED_EDGE ( 'NONE', *, *, #28, .F. ) ;
#121 = CARTESIAN_POINT ( 'NONE',  ( 1.990144363140586139E-13, 1.874699728327313799E-32, 57.00000000000000000 ) ) ;
#122 = CIRCLE ( 'NONE', #210, 1.499999999999998890 ) ;
#123 = CARTESIAN_POINT ( 'NONE',  ( 2.793185071074506053E-14, -1.734723475976807094E-15, 7.999999999999998224 ) ) ;
#124 = DIRECTION ( 'NONE',  ( 0.0000000000000000000, 1.000000000000000000, 0.0000000000000000000 ) ) ;
#125 = CARTESIAN_POINT ( 'NONE',  ( 2.793185071074506053E-14, -9.959969107527456471E-16, 7.999999999999998224 ) ) ;
#126 = CC_DESIGN_APPROVAL ( #58, ( #6 ) ) ;
#127 = CARTESIAN_POINT ( 'NONE',  ( 2.793185071074506684E-14, 2.249639673992782580E-32, 8.000000000000000000 ) ) ;
#128 = APPROVAL_ROLE ( '' ) ;
#129 = PERSON_AND_ORGANIZATION_ROLE ( 'design_owner' ) ;
#130 = AXIS2_PLACEMENT_3D ( 'NONE', #121, #108, #220 ) ;
#131 = VERTEX_POINT ( 'NONE', #81 ) ;
#132 = APPLICATION_CONTEXT ( 'configuration controlled 3d designs of mechanical parts and assemblies' ) ;
#133 = CC_DESIGN_PERSON_AND_ORGANIZATION_ASSIGNMENT ( #19, #175, ( #143 ) ) ;
#134 = DIRECTION ( 'NONE',  ( -3.491481338843133355E-15, 1.244996138440932305E-16, -1.000000000000000000 ) ) ;
#135 = EDGE_LOOP ( 'NONE', ( #209 ) ) ;
#136 = CIRCLE ( 'NONE', #222, 1.499999999999998890 ) ;
#137 = CARTESIAN_POINT ( 'NONE',  ( 1.990144363140586139E-13, -6.980486755139912911E-15, 57.00000000000000000 ) ) ;
#138 = FACE_OUTER_BOUND ( 'NONE', #216, .T. ) ;
#139 = DIRECTION ( 'NONE',  ( 3.491481338843133355E-15, -1.244996138440932305E-16, 1.000000000000000000 ) ) ;
#140 = CARTESIAN_POINT ( 'NONE',  ( -1.304064235289483108E-30, -1.500000000000000000, -3.734988415322796916E-16 ) ) ;
#141 = DIRECTION ( 'NONE',  ( 3.491481338843133355E-15, -1.244996138440932305E-16, 1.000000000000000000 ) ) ;
#142 = APPROVAL_DATE_TIME ( #59, #165 ) ;
#143 = PRODUCT_DEFINITION ( 'UNKNOWN', '', #6, #111 ) ;
#144 = MECHANICAL_CONTEXT ( 'NONE', #96, 'mechanical' ) ;
#145 = EDGE_LOOP ( 'NONE', ( #120 ) ) ;
#146 = PERSON_AND_ORGANIZATION ( #22, #63 ) ;
#147 = FACE_OUTER_BOUND ( 'NONE', #192, .T. ) ;
#148 = PERSON_AND_ORGANIZATION ( #22, #63 ) ;
#149 = AXIS2_PLACEMENT_3D ( 'NONE', #35, #181, #166 ) ;
#150 = EDGE_CURVE ( 'NONE', #131, #131, #122, .T. ) ;
#151 = CC_DESIGN_APPROVAL ( #178, ( #200 ) ) ;
#152 = DIRECTION ( 'NONE',  ( -4.275831445896958607E-31, -1.000000000000000000, -1.224646799147353207E-16 ) ) ;
#153 = DIRECTION ( 'NONE',  ( -3.491481338843133355E-15, 1.224646799147353207E-16, -1.000000000000000000 ) ) ;
#154 = CARTESIAN_POINT ( 'NONE',  ( 1.972686956446370535E-13, -6.919254415182545337E-15, 56.50000000000000000 ) ) ;
#155 = DIRECTION ( 'NONE',  ( -3.491481338843133355E-15, 1.224646799147353207E-16, -1.000000000000000000 ) ) ;
#156 = AXIS2_PLACEMENT_3D ( 'NONE', #107, #155, #202 ) ;
#157 = APPROVAL_DATE_TIME ( #61, #58 ) ;
#158 = CC_DESIGN_SECURITY_CLASSIFICATION ( #200, ( #6 ) ) ;
#159 = DATE_AND_TIME ( #91, #20 ) ;
#160 = SECURITY_CLASSIFICATION_LEVEL ( 'unclassified' ) ;
#161 = AXIS2_PLACEMENT_3D ( 'NONE', #137, #153, #124 ) ;
#162 = ORIENTED_EDGE ( 'NONE', *, *, #47, .T. ) ;
#163 = FACE_OUTER_BOUND ( 'NONE', #83, .T. ) ;
#164 = DIRECTION ( 'NONE',  ( 3.491481338843133355E-15, -1.224646799147353207E-16, 1.000000000000000000 ) ) ;
#165 = APPROVAL ( #112, 'UNSPECIFIED' ) ;
#166 = DIRECTION ( 'NONE',  ( -4.275831445896958607E-31, -1.000000000000000000, -1.224646799147353207E-16 ) ) ;
#167 = PRODUCT ( '63700', '63700', '', ( #144 ) ) ;
#168 = PLANE ( 'NONE',  #149 ) ;
#169 = CIRCLE ( 'NONE', #161, 2.500000000000002665 ) ;
#170 = CARTESIAN_POINT ( 'NONE',  ( 1.990144363140586139E-13, -6.980486755139912911E-15, 57.00000000000000000 ) ) ;
#171 = EDGE_CURVE ( 'NONE', #2, #2, #186, .T. ) ;
#172 =( NAMED_UNIT ( * ) PLANE_ANGLE_UNIT ( ) SI_UNIT ( $, .RADIAN. ) );
#173 = CALENDAR_DATE ( 2021, 15, 11 ) ;
#174 =( GEOMETRIC_REPRESENTATION_CONTEXT ( 3 ) GLOBAL_UNCERTAINTY_ASSIGNED_CONTEXT ( ( #53 ) ) GLOBAL_UNIT_ASSIGNED_CONTEXT ( ( #208, #172, #5 ) ) REPRESENTATION_CONTEXT ( 'NONE', 'WORKASPACE' ) );
#175 = PERSON_AND_ORGANIZATION_ROLE ( 'creator' ) ;
#176 = ORIENTED_EDGE ( 'NONE', *, *, #171, .F. ) ;
#177 = APPROVAL_DATE_TIME ( #99, #178 ) ;
#178 = APPROVAL ( #193, 'UNSPECIFIED' ) ;
#179 = ORIENTED_EDGE ( 'NONE', *, *, #171, .T. ) ;
#180 = FACE_OUTER_BOUND ( 'NONE', #24, .T. ) ;
#181 = DIRECTION ( 'NONE',  ( 3.491481338843133355E-15, -1.224646799147353207E-16, 1.000000000000000000 ) ) ;
#182 = MANIFOLD_SOLID_BREP ( 'Corps-Déplacer/Copier1[1]', #76 ) ;
#183 = CARTESIAN_POINT ( 'NONE',  ( 2.793185071074506053E-14, -9.959969107527456471E-16, 7.999999999999998224 ) ) ;
#184 = ADVANCED_BREP_SHAPE_REPRESENTATION ( '63700', ( #182, #187, #214 ), #174 ) ;
#185 = CARTESIAN_POINT ( 'NONE',  ( 1.990144363140586139E-13, 2.499999999999995559, 57.00000000000000000 ) ) ;
#186 = CIRCLE ( 'NONE', #80, 3.000000000000002665 ) ;
#187 = MANIFOLD_SOLID_BREP ( 'Corps-Déplacer/Copier1[2]', #43 ) ;
#188 = DIRECTION ( 'NONE',  ( 0.0000000000000000000, 1.000000000000000000, 0.0000000000000000000 ) ) ;
#189 = COORDINATED_UNIVERSAL_TIME_OFFSET ( 1, 0, .AHEAD. ) ;
#190 = PERSON_AND_ORGANIZATION_ROLE ( 'creator' ) ;
#191 = COORDINATED_UNIVERSAL_TIME_OFFSET ( 1, 0, .AHEAD. ) ;
#192 = EDGE_LOOP ( 'NONE', ( #67 ) ) ;
#193 = APPROVAL_STATUS ( 'not_yet_approved' ) ;
#194 = CYLINDRICAL_SURFACE ( 'NONE', #57, 1.499999999999999556 ) ;
#195 = AXIS2_PLACEMENT_3D ( 'NONE', #170, #223, #72 ) ;
#196 = DIRECTION ( 'NONE',  ( -3.491481338843133355E-15, 1.224646799147353207E-16, -1.000000000000000000 ) ) ;
#197 = CC_DESIGN_PERSON_AND_ORGANIZATION_ASSIGNMENT ( #56, #190, ( #6 ) ) ;
#198 = ADVANCED_FACE ( 'NONE', ( #86 ), #51, .T. ) ;
#199 = FACE_OUTER_BOUND ( 'NONE', #31, .T. ) ;
#200 = SECURITY_CLASSIFICATION ( '', '', #160 ) ;
#201 = VERTEX_POINT ( 'NONE', #34 ) ;
#202 = DIRECTION ( 'NONE',  ( 4.275831445896959482E-31, 1.000000000000000000, 1.224646799147353207E-16 ) ) ;
#203 = CARTESIAN_POINT ( 'NONE',  ( -6.520321176447415539E-31, 2.325023077099249721E-32, -1.867494207661398458E-16 ) ) ;
#204 = COORDINATED_UNIVERSAL_TIME_OFFSET ( 1, 0, .AHEAD. ) ;
#205 = ADVANCED_FACE ( 'NONE', ( #163 ), #46, .F. ) ;
#206 = DIRECTION ( 'NONE',  ( 1.000000000000000000, 0.0000000000000000000, 0.0000000000000000000 ) ) ;
#207 = ADVANCED_FACE ( 'NONE', ( #17, #221 ), #33, .T. ) ;
#208 =( LENGTH_UNIT ( ) NAMED_UNIT ( * ) SI_UNIT ( .MILLI., .METRE. ) );
#209 = ORIENTED_EDGE ( 'NONE', *, *, #62, .T. ) ;
#210 = AXIS2_PLACEMENT_3D ( 'NONE', #125, #139, #15 ) ;
#211 = PERSON_AND_ORGANIZATION_ROLE ( 'classification_officer' ) ;
#212 = ORIENTED_EDGE ( 'NONE', *, *, #47, .F. ) ;
#213 = PERSON_AND_ORGANIZATION ( #22, #63 ) ;
#214 = AXIS2_PLACEMENT_3D ( 'NONE', #3, #39, #206 ) ;
#215 = ADVANCED_FACE ( 'NONE', ( #138, #13 ), #92, .T. ) ;
#216 = EDGE_LOOP ( 'NONE', ( #176 ) ) ;
#217 = EDGE_LOOP ( 'NONE', ( #60 ) ) ;
#218 = APPROVAL_PERSON_ORGANIZATION ( #213, #58, #128 ) ;
#219 = DIRECTION ( 'NONE',  ( -4.346880784298276734E-31, -1.000000000000000000, -1.244996138440932305E-16 ) ) ;
#220 = DIRECTION ( 'NONE',  ( 4.275831445896958607E-31, 1.000000000000000000, 1.224646799147353207E-16 ) ) ;
#221 = FACE_OUTER_BOUND ( 'NONE', #217, .T. ) ;
#222 = AXIS2_PLACEMENT_3D ( 'NONE', #183, #70, #105 ) ;
#223 = DIRECTION ( 'NONE',  ( -3.491481338843133355E-15, 1.224646799147353207E-16, -1.000000000000000000 ) ) ;
ENDSEC;
END-ISO-10303-21;
