ISO-10303-21;
HEADER;
FILE_DESCRIPTION (( 'STEP AP203' ),
    '1' );
FILE_NAME ('637.step',
    '2021-12-06T13:00:02',
    ( '' ),
    ( '' ),
    'SwSTEP 2.0',
    'SolidWorks 2019',
    '' );
FILE_SCHEMA (( 'CONFIG_CONTROL_DESIGN' ));
ENDSEC;

DATA;
#1 = EDGE_LOOP ( 'NONE', ( #2 ) ) ;
#2 = ORIENTED_EDGE ( 'NONE', *, *, #141, .F. ) ;
#3 = LOCAL_TIME ( 14, 0, 2.000000000000000000, #68 ) ;
#4 = CALENDAR_DATE ( 2021, 6, 12 ) ;
#5 = CARTESIAN_POINT ( 'NONE',  ( 8.728703347107831810E-15, 4.000000000000000000, 2.499999999999999556 ) ) ;
#6 = CC_DESIGN_PERSON_AND_ORGANIZATION_ASSIGNMENT ( #29, #50, ( #46 ) ) ;
#7 = FACE_BOUND ( 'NONE', #81, .T. ) ;
#8 = ORIENTED_EDGE ( 'NONE', *, *, #20, .F. ) ;
#9 = PERSON_AND_ORGANIZATION ( #154, #137 ) ;
#10 = AXIS2_PLACEMENT_3D ( 'NONE', #168, #166, #119 ) ;
#11 = ADVANCED_FACE ( 'NONE', ( #169, #45 ), #59, .F. ) ;
#12 = DIRECTION ( 'NONE',  ( -3.491481338843133355E-15, 8.817456953860943289E-17, -1.000000000000000000 ) ) ;
#13 = SECURITY_CLASSIFICATION ( '', '', #147 ) ;
#14 = FACE_BOUND ( 'NONE', #82, .T. ) ;
#15 = CARTESIAN_POINT ( 'NONE',  ( -1.308404422444469414E-30, 4.000000000000000000, -3.747419205390900898E-16 ) ) ;
#16 = CC_DESIGN_APPROVAL ( #67, ( #78 ) ) ;
#17 = CC_DESIGN_PERSON_AND_ORGANIZATION_ASSIGNMENT ( #131, #88, ( #46 ) ) ;
#18 = VERTEX_POINT ( 'NONE', #54 ) ;
#19 = CALENDAR_DATE ( 2021, 6, 12 ) ;
#20 = EDGE_CURVE ( 'NONE', #18, #18, #118, .T. ) ;
#21 = DATE_TIME_ROLE ( 'classification_date' ) ;
#22 = APPROVAL ( #89, 'UNSPECIFIED' ) ;
#23 = DIRECTION ( 'NONE',  ( -3.491481338843133355E-15, 8.817456953860943289E-17, -1.000000000000000000 ) ) ;
#24 = DIRECTION ( 'NONE',  ( -3.491481338843133355E-15, 8.817456953860943289E-17, -1.000000000000000000 ) ) ;
#25 = CARTESIAN_POINT ( 'NONE',  ( 0.0000000000000000000, 0.0000000000000000000, 0.0000000000000000000 ) ) ;
#26 = CC_DESIGN_PERSON_AND_ORGANIZATION_ASSIGNMENT ( #79, #149, ( #78 ) ) ;
#27 = APPROVAL_DATE_TIME ( #163, #22 ) ;
#28 = CIRCLE ( 'NONE', #144, 12.50000000000000000 ) ;
#29 = PERSON_AND_ORGANIZATION ( #154, #137 ) ;
#30 = COORDINATED_UNIVERSAL_TIME_OFFSET ( 1, 0, .AHEAD. ) ;
#31 = APPROVAL_STATUS ( 'not_yet_approved' ) ;
#32 = VERTEX_POINT ( 'NONE', #151 ) ;
#33 = VERTEX_POINT ( 'NONE', #74 ) ;
#34 = FACE_OUTER_BOUND ( 'NONE', #113, .T. ) ;
#35 = PLANE ( 'NONE',  #124 ) ;
#36 = DESIGN_CONTEXT ( 'detailed design', #65, 'design' ) ;
#37 = PERSON_AND_ORGANIZATION ( #154, #137 ) ;
#38 = AXIS2_PLACEMENT_3D ( 'NONE', #130, #160, #102 ) ;
#39 = PERSON_AND_ORGANIZATION ( #154, #137 ) ;
#40 = DATE_AND_TIME ( #91, #80 ) ;
#41 = ORIENTED_EDGE ( 'NONE', *, *, #112, .F. ) ;
#42 = LOCAL_TIME ( 14, 0, 2.000000000000000000, #30 ) ;
#43 = CARTESIAN_POINT ( 'NONE',  ( 8.728703347107828655E-15, -2.204364238465234590E-16, 2.499999999999998668 ) ) ;
#44 = EDGE_LOOP ( 'NONE', ( #8 ) ) ;
#45 = FACE_OUTER_BOUND ( 'NONE', #1, .T. ) ;
#46 = PRODUCT_DEFINITION_FORMATION_WITH_SPECIFIED_SOURCE ( 'ANY', '', #99, .NOT_KNOWN. ) ;
#47 = DATE_AND_TIME ( #4, #42 ) ;
#48 = DIRECTION ( 'NONE',  ( 1.000000000000000000, 0.0000000000000000000, 0.0000000000000000000 ) ) ;
#49 = PERSON_AND_ORGANIZATION ( #154, #137 ) ;
#50 = PERSON_AND_ORGANIZATION_ROLE ( 'creator' ) ;
#51 = ADVANCED_BREP_SHAPE_REPRESENTATION ( '637', ( #120, #152 ), #162 ) ;
#52 = APPROVAL_DATE_TIME ( #146, #67 ) ;
#53 = ADVANCED_FACE ( 'NONE', ( #34, #92 ), #115, .T. ) ;
#54 = CARTESIAN_POINT ( 'NONE',  ( 8.728703347107831810E-15, 12.50000000000000000, 2.500000000000000000 ) ) ;
#55 = AXIS2_PLACEMENT_3D ( 'NONE', #43, #24, #95 ) ;
#56 = AXIS2_PLACEMENT_3D ( 'NONE', #135, #23, #83 ) ;
#57 = ORIENTED_EDGE ( 'NONE', *, *, #112, .T. ) ;
#58 = DIRECTION ( 'NONE',  ( 3.078598641045810232E-31, 1.000000000000000000, 8.817456953860943289E-17 ) ) ;
#59 = CYLINDRICAL_SURFACE ( 'NONE', #84, 4.000000000000000000 ) ;
#60 =( NAMED_UNIT ( * ) SI_UNIT ( $, .STERADIAN. ) SOLID_ANGLE_UNIT ( ) );
#61 = LOCAL_TIME ( 14, 0, 2.000000000000000000, #70 ) ;
#62 = COORDINATED_UNIVERSAL_TIME_OFFSET ( 1, 0, .AHEAD. ) ;
#63 = APPROVAL_ROLE ( '' ) ;
#64 = CC_DESIGN_APPROVAL ( #22, ( #13 ) ) ;
#65 = APPLICATION_CONTEXT ( 'configuration controlled 3d designs of mechanical parts and assemblies' ) ;
#66 = PERSON_AND_ORGANIZATION_ROLE ( 'design_owner' ) ;
#67 = APPROVAL ( #31, 'UNSPECIFIED' ) ;
#68 = COORDINATED_UNIVERSAL_TIME_OFFSET ( 1, 0, .AHEAD. ) ;
#69 = APPROVAL_PERSON_ORGANIZATION ( #49, #94, #63 ) ;
#70 = COORDINATED_UNIVERSAL_TIME_OFFSET ( 1, 0, .AHEAD. ) ;
#71 = CARTESIAN_POINT ( 'NONE',  ( -3.848248301307263271E-30, 9.718443391648839269E-32, -1.102182119232617911E-15 ) ) ;
#72 = EDGE_LOOP ( 'NONE', ( #57 ) ) ;
#73 = DIRECTION ( 'NONE',  ( -3.491481338843133355E-15, 8.817456953860943289E-17, -1.000000000000000000 ) ) ;
#74 = CARTESIAN_POINT ( 'NONE',  ( -1.710569414459005214E-46, 4.000000000000000000, 0.0000000000000000000 ) ) ;
#75 = ADVANCED_FACE ( 'NONE', ( #158, #14 ), #35, .T. ) ;
#76 = APPLICATION_CONTEXT ( 'configuration controlled 3d designs of mechanical parts and assemblies' ) ;
#77 = CLOSED_SHELL ( 'NONE', ( #75, #53, #148, #11 ) ) ;
#78 = PRODUCT_DEFINITION ( 'UNKNOWN', '', #46, #36 ) ;
#79 = PERSON_AND_ORGANIZATION ( #154, #137 ) ;
#80 = LOCAL_TIME ( 14, 0, 2.000000000000000000, #161 ) ;
#81 = EDGE_LOOP ( 'NONE', ( #128 ) ) ;
#82 = EDGE_LOOP ( 'NONE', ( #41 ) ) ;
#83 = DIRECTION ( 'NONE',  ( 3.078598641045810670E-31, 1.000000000000000000, 8.817456953860943289E-17 ) ) ;
#84 = AXIS2_PLACEMENT_3D ( 'NONE', #25, #73, #129 ) ;
#85 = CARTESIAN_POINT ( 'NONE',  ( 0.0000000000000000000, 0.0000000000000000000, 0.0000000000000000000 ) ) ;
#86 = DIRECTION ( 'NONE',  ( -3.491481338843133355E-15, 8.817456953860943289E-17, -1.000000000000000000 ) ) ;
#87 =( LENGTH_UNIT ( ) NAMED_UNIT ( * ) SI_UNIT ( .MILLI., .METRE. ) );
#88 = PERSON_AND_ORGANIZATION_ROLE ( 'design_supplier' ) ;
#89 = APPROVAL_STATUS ( 'not_yet_approved' ) ;
#90 = APPROVAL_PERSON_ORGANIZATION ( #104, #22, #108 ) ;
#91 = CALENDAR_DATE ( 2021, 6, 12 ) ;
#92 = FACE_OUTER_BOUND ( 'NONE', #109, .T. ) ;
#93 = CARTESIAN_POINT ( 'NONE',  ( -1.231439456418324268E-30, 3.109901885327628128E-32, -3.526982781544377809E-16 ) ) ;
#94 = APPROVAL ( #101, 'UNSPECIFIED' ) ;
#95 = DIRECTION ( 'NONE',  ( 2.465190328815661892E-31, 1.000000000000000000, 1.040834085586084257E-16 ) ) ;
#96 = UNCERTAINTY_MEASURE_WITH_UNIT (LENGTH_MEASURE( 1.000000000000000082E-05 ), #87, 'distance_accuracy_value', 'NONE');
#97 = CC_DESIGN_SECURITY_CLASSIFICATION ( #13, ( #46 ) ) ;
#98 = VERTEX_POINT ( 'NONE', #5 ) ;
#99 = PRODUCT ( '637', '637', '', ( #150 ) ) ;
#100 = PERSON_AND_ORGANIZATION_ROLE ( 'classification_officer' ) ;
#101 = APPROVAL_STATUS ( 'not_yet_approved' ) ;
#102 = DIRECTION ( 'NONE',  ( 3.851859888774471706E-31, 1.000000000000000000, 1.084202172485504434E-16 ) ) ;
#103 = EDGE_CURVE ( 'NONE', #32, #32, #28, .T. ) ;
#104 = PERSON_AND_ORGANIZATION ( #154, #137 ) ;
#105 = PLANE ( 'NONE',  #10 ) ;
#106 = DATE_TIME_ROLE ( 'creation_date' ) ;
#107 = FACE_OUTER_BOUND ( 'NONE', #44, .T. ) ;
#108 = APPROVAL_ROLE ( '' ) ;
#109 = EDGE_LOOP ( 'NONE', ( #136 ) ) ;
#110 = CALENDAR_DATE ( 2021, 6, 12 ) ;
#111 = APPLICATION_PROTOCOL_DEFINITION ( 'international standard', 'config_control_design', 1994, #76 ) ;
#112 = EDGE_CURVE ( 'NONE', #33, #33, #122, .T. ) ;
#113 = EDGE_LOOP ( 'NONE', ( #165 ) ) ;
#114 = DIRECTION ( 'NONE',  ( 3.078598641045810670E-31, 1.000000000000000000, 8.817456953860943289E-17 ) ) ;
#115 = CYLINDRICAL_SURFACE ( 'NONE', #56, 12.50000000000000000 ) ;
#116 = LOCAL_TIME ( 14, 0, 2.000000000000000000, #62 ) ;
#117 =( NAMED_UNIT ( * ) PLANE_ANGLE_UNIT ( ) SI_UNIT ( $, .RADIAN. ) );
#118 = CIRCLE ( 'NONE', #55, 12.50000000000000000 ) ;
#119 = DIRECTION ( 'NONE',  ( -3.078598641045810232E-31, -1.000000000000000000, -8.817456953860943289E-17 ) ) ;
#120 = MANIFOLD_SOLID_BREP ( 'Corps-Déplacer/Copier1', #77 ) ;
#121 = SHAPE_DEFINITION_REPRESENTATION ( #164, #51 ) ;
#122 = CIRCLE ( 'NONE', #157, 4.000000000000000000 ) ;
#123 = CC_DESIGN_PERSON_AND_ORGANIZATION_ASSIGNMENT ( #9, #66, ( #99 ) ) ;
#124 = AXIS2_PLACEMENT_3D ( 'NONE', #15, #156, #58 ) ;
#125 = APPLICATION_PROTOCOL_DEFINITION ( 'international standard', 'config_control_design', 1994, #65 ) ;
#126 = EDGE_LOOP ( 'NONE', ( #153 ) ) ;
#127 = CIRCLE ( 'NONE', #38, 4.000000000000000000 ) ;
#128 = ORIENTED_EDGE ( 'NONE', *, *, #141, .T. ) ;
#129 = DIRECTION ( 'NONE',  ( 3.078598641045810232E-31, 1.000000000000000000, 8.817456953860944521E-17 ) ) ;
#130 = CARTESIAN_POINT ( 'NONE',  ( 8.728703347107830233E-15, -2.204364238465235083E-16, 2.499999999999999112 ) ) ;
#131 = PERSON_AND_ORGANIZATION ( #154, #137 ) ;
#132 = APPROVAL_ROLE ( '' ) ;
#133 = CC_DESIGN_DATE_AND_TIME_ASSIGNMENT ( #47, #106, ( #78 ) ) ;
#134 = CC_DESIGN_APPROVAL ( #94, ( #46 ) ) ;
#135 = CARTESIAN_POINT ( 'NONE',  ( 0.0000000000000000000, 0.0000000000000000000, 0.0000000000000000000 ) ) ;
#136 = ORIENTED_EDGE ( 'NONE', *, *, #103, .F. ) ;
#137 = ORGANIZATION ( 'UNSPECIFIED', 'UNSPECIFIED', '' ) ;
#138 = DIRECTION ( 'NONE',  ( 0.0000000000000000000, 0.0000000000000000000, 1.000000000000000000 ) ) ;
#139 = CC_DESIGN_DATE_AND_TIME_ASSIGNMENT ( #142, #21, ( #13 ) ) ;
#140 = DIRECTION ( 'NONE',  ( 3.078598641045810232E-31, 1.000000000000000000, 8.817456953860944521E-17 ) ) ;
#141 = EDGE_CURVE ( 'NONE', #98, #98, #127, .T. ) ;
#142 = DATE_AND_TIME ( #143, #3 ) ;
#143 = CALENDAR_DATE ( 2021, 6, 12 ) ;
#144 = AXIS2_PLACEMENT_3D ( 'NONE', #71, #12, #114 ) ;
#145 = APPROVAL_DATE_TIME ( #40, #94 ) ;
#146 = DATE_AND_TIME ( #110, #61 ) ;
#147 = SECURITY_CLASSIFICATION_LEVEL ( 'unclassified' ) ;
#148 = ADVANCED_FACE ( 'NONE', ( #7, #107 ), #105, .T. ) ;
#149 = PERSON_AND_ORGANIZATION_ROLE ( 'creator' ) ;
#150 = MECHANICAL_CONTEXT ( 'NONE', #76, 'mechanical' ) ;
#151 = CARTESIAN_POINT ( 'NONE',  ( 0.0000000000000000000, 12.50000000000000000, 0.0000000000000000000 ) ) ;
#152 = AXIS2_PLACEMENT_3D ( 'NONE', #85, #138, #48 ) ;
#153 = ORIENTED_EDGE ( 'NONE', *, *, #103, .T. ) ;
#154 = PERSON ( 'UNSPECIFIED', 'UNSPECIFIED', 'UNSPECIFIED', ('UNSPECIFIED'), ('UNSPECIFIED'), ('UNSPECIFIED') ) ;
#155 = CC_DESIGN_PERSON_AND_ORGANIZATION_ASSIGNMENT ( #37, #100, ( #13 ) ) ;
#156 = DIRECTION ( 'NONE',  ( -3.491481338843133355E-15, 8.817456953860943289E-17, -1.000000000000000000 ) ) ;
#157 = AXIS2_PLACEMENT_3D ( 'NONE', #93, #86, #140 ) ;
#158 = FACE_OUTER_BOUND ( 'NONE', #126, .T. ) ;
#159 = PRODUCT_RELATED_PRODUCT_CATEGORY ( 'detail', '', ( #99 ) ) ;
#160 = DIRECTION ( 'NONE',  ( -3.491481338843133355E-15, 8.817456953860943289E-17, -1.000000000000000000 ) ) ;
#161 = COORDINATED_UNIVERSAL_TIME_OFFSET ( 1, 0, .AHEAD. ) ;
#162 =( GEOMETRIC_REPRESENTATION_CONTEXT ( 3 ) GLOBAL_UNCERTAINTY_ASSIGNED_CONTEXT ( ( #96 ) ) GLOBAL_UNIT_ASSIGNED_CONTEXT ( ( #87, #117, #60 ) ) REPRESENTATION_CONTEXT ( 'NONE', 'WORKASPACE' ) );
#163 = DATE_AND_TIME ( #19, #116 ) ;
#164 = PRODUCT_DEFINITION_SHAPE ( 'NONE', 'NONE',  #78 ) ;
#165 = ORIENTED_EDGE ( 'NONE', *, *, #20, .T. ) ;
#166 = DIRECTION ( 'NONE',  ( 3.491481338843133355E-15, -8.817456953860943289E-17, 1.000000000000000000 ) ) ;
#167 = APPROVAL_PERSON_ORGANIZATION ( #39, #67, #132 ) ;
#168 = CARTESIAN_POINT ( 'NONE',  ( 8.728703347107830233E-15, 4.000000000000000000, 2.499999999999999112 ) ) ;
#169 = FACE_OUTER_BOUND ( 'NONE', #72, .T. ) ;
ENDSEC;
END-ISO-10303-21;
