ISO-10303-21;
HEADER;
FILE_DESCRIPTION (( 'STEP AP203' ),
    '1' );
FILE_NAME ('63699.step',
    '2021-11-15T14:53:34',
    ( '' ),
    ( '' ),
    'SwSTEP 2.0',
    'SolidWorks 2019',
    '' );
FILE_SCHEMA (( 'CONFIG_CONTROL_DESIGN' ));
ENDSEC;

DATA;
#1 = APPROVAL ( #161, 'UNSPECIFIED' ) ;
#2 = AXIS2_PLACEMENT_3D ( 'NONE', #63, #201, #24 ) ;
#3 = DATE_AND_TIME ( #19, #51 ) ;
#4 = CIRCLE ( 'NONE', #94, 1.499999999999997558 ) ;
#5 = EDGE_CURVE ( 'NONE', #167, #167, #61, .T. ) ;
#6 = PERSON_AND_ORGANIZATION_ROLE ( 'design_supplier' ) ;
#7 = ADVANCED_FACE ( 'NONE', ( #134 ), #151, .F. ) ;
#8 = CARTESIAN_POINT ( 'NONE',  ( -8.693761568596555220E-31, -1.000000000000000000, -2.489992276881864611E-16 ) ) ;
#9 = EDGE_LOOP ( 'NONE', ( #190 ) ) ;
#10 = DIRECTION ( 'NONE',  ( -3.491481338843133355E-15, 1.224646799147353207E-16, -1.000000000000000000 ) ) ;
#11 = DIRECTION ( 'NONE',  ( -3.491481338843133355E-15, 1.224646799147353207E-16, -1.000000000000000000 ) ) ;
#12 = PRODUCT_RELATED_PRODUCT_CATEGORY ( 'detail', '', ( #48 ) ) ;
#13 = CC_DESIGN_SECURITY_CLASSIFICATION ( #125, ( #180 ) ) ;
#14 = FACE_BOUND ( 'NONE', #101, .T. ) ;
#15 = ORIENTED_EDGE ( 'NONE', *, *, #183, .F. ) ;
#16 = DIRECTION ( 'NONE',  ( 3.491481338843133355E-15, -1.244996138440932305E-16, 1.000000000000000000 ) ) ;
#17 = PRODUCT_DEFINITION_SHAPE ( 'NONE', 'NONE',  #178 ) ;
#18 = COORDINATED_UNIVERSAL_TIME_OFFSET ( 1, 0, .AHEAD. ) ;
#19 = CALENDAR_DATE ( 2021, 15, 11 ) ;
#20 = APPROVAL_DATE_TIME ( #54, #1 ) ;
#21 = FACE_OUTER_BOUND ( 'NONE', #171, .T. ) ;
#22 = ORIENTED_EDGE ( 'NONE', *, *, #144, .F. ) ;
#23 = DIRECTION ( 'NONE',  ( -3.491481338843133355E-15, 1.224646799147353207E-16, -1.000000000000000000 ) ) ;
#24 = DIRECTION ( 'NONE',  ( -4.275831445896958607E-31, -1.000000000000000000, -1.224646799147353207E-16 ) ) ;
#25 = ORIENTED_EDGE ( 'NONE', *, *, #144, .T. ) ;
#26 = VERTEX_POINT ( 'NONE', #150 ) ;
#27 = AXIS2_PLACEMENT_3D ( 'NONE', #169, #219, #70 ) ;
#28 = CARTESIAN_POINT ( 'NONE',  ( 2.444036937190193033E-14, -1.000000000000000888, 6.999999999999999112 ) ) ;
#29 = EDGE_LOOP ( 'NONE', ( #105 ) ) ;
#30 = ADVANCED_FACE ( 'NONE', ( #121 ), #223, .F. ) ;
#31 = EDGE_LOOP ( 'NONE', ( #25 ) ) ;
#32 = APPLICATION_PROTOCOL_DEFINITION ( 'international standard', 'config_control_design', 1994, #186 ) ;
#33 = CIRCLE ( 'NONE', #164, 1.000000000000000000 ) ;
#34 = COORDINATED_UNIVERSAL_TIME_OFFSET ( 1, 0, .AHEAD. ) ;
#35 = PERSON_AND_ORGANIZATION ( #113, #62 ) ;
#36 = CC_DESIGN_DATE_AND_TIME_ASSIGNMENT ( #129, #209, ( #178 ) ) ;
#37 = APPROVAL_STATUS ( 'not_yet_approved' ) ;
#38 = PLANE ( 'NONE',  #74 ) ;
#39 = DIRECTION ( 'NONE',  ( 0.0000000000000000000, 1.000000000000000000, 0.0000000000000000000 ) ) ;
#40 = CLOSED_SHELL ( 'NONE', ( #92, #147, #7, #188, #30 ) ) ;
#41 = EDGE_LOOP ( 'NONE', ( #86 ) ) ;
#42 = DIRECTION ( 'NONE',  ( 0.0000000000000000000, 1.000000000000000000, 0.0000000000000000000 ) ) ;
#43 = ORIENTED_EDGE ( 'NONE', *, *, #5, .T. ) ;
#44 = FACE_OUTER_BOUND ( 'NONE', #173, .T. ) ;
#45 = VERTEX_POINT ( 'NONE', #8 ) ;
#46 = APPROVAL ( #104, 'UNSPECIFIED' ) ;
#47 = CIRCLE ( 'NONE', #91, 1.000000000000000000 ) ;
#48 = PRODUCT ( '63699', '63699', '', ( #174 ) ) ;
#49 = PERSON_AND_ORGANIZATION ( #113, #62 ) ;
#50 = FACE_OUTER_BOUND ( 'NONE', #31, .T. ) ;
#51 = LOCAL_TIME ( 15, 53, 34.00000000000000000, #34 ) ;
#52 =( LENGTH_UNIT ( ) NAMED_UNIT ( * ) SI_UNIT ( .MILLI., .METRE. ) );
#53 = CARTESIAN_POINT ( 'NONE',  ( 0.0000000000000000000, 0.0000000000000000000, 0.0000000000000000000 ) ) ;
#54 = DATE_AND_TIME ( #124, #122 ) ;
#55 = ADVANCED_FACE ( 'NONE', ( #50, #215 ), #213, .T. ) ;
#56 = PERSON_AND_ORGANIZATION_ROLE ( 'classification_officer' ) ;
#57 = PERSON_AND_ORGANIZATION_ROLE ( 'creator' ) ;
#58 = COORDINATED_UNIVERSAL_TIME_OFFSET ( 1, 0, .AHEAD. ) ;
#59 = DATE_AND_TIME ( #88, #217 ) ;
#60 = EDGE_CURVE ( 'NONE', #136, #136, #33, .T. ) ;
#61 = CIRCLE ( 'NONE', #192, 1.499999999999995781 ) ;
#62 = ORGANIZATION ( 'UNSPECIFIED', 'UNSPECIFIED', '' ) ;
#63 = CARTESIAN_POINT ( 'NONE',  ( 2.444036937190193349E-14, 1.124819836996387322E-32, 7.000000000000000000 ) ) ;
#64 = CARTESIAN_POINT ( 'NONE',  ( 1.326762908760390423E-13, -4.653657836759941941E-15, 38.00000000000000000 ) ) ;
#65 = CARTESIAN_POINT ( 'NONE',  ( 2.444036937190193033E-14, -8.714972969086524658E-16, 6.999999999999999112 ) ) ;
#66 = CC_DESIGN_APPROVAL ( #46, ( #178 ) ) ;
#67 = UNCERTAINTY_MEASURE_WITH_UNIT (LENGTH_MEASURE( 1.000000000000000082E-05 ), #52, 'distance_accuracy_value', 'NONE');
#68 = DIRECTION ( 'NONE',  ( 0.0000000000000000000, 1.000000000000000000, 0.0000000000000000000 ) ) ;
#69 = DIRECTION ( 'NONE',  ( -4.409363829953005302E-31, -1.000000000000000000, -1.244996138440932305E-16 ) ) ;
#70 = DIRECTION ( 'NONE',  ( 4.275831445896958607E-31, 1.000000000000000000, 1.224646799147353207E-16 ) ) ;
#71 = DIRECTION ( 'NONE',  ( 4.275831445896958607E-31, 1.000000000000000000, 1.224646799147353207E-16 ) ) ;
#72 = PERSON_AND_ORGANIZATION_ROLE ( 'design_owner' ) ;
#73 = CARTESIAN_POINT ( 'NONE',  ( 2.444036937190193349E-14, 1.124819836996387322E-32, 7.000000000000000000 ) ) ;
#74 = AXIS2_PLACEMENT_3D ( 'NONE', #114, #152, #117 ) ;
#75 = PERSON_AND_ORGANIZATION ( #113, #62 ) ;
#76 = CC_DESIGN_PERSON_AND_ORGANIZATION_ASSIGNMENT ( #35, #78, ( #178 ) ) ;
#77 = COORDINATED_UNIVERSAL_TIME_OFFSET ( 1, 0, .AHEAD. ) ;
#78 = PERSON_AND_ORGANIZATION_ROLE ( 'creator' ) ;
#79 = APPROVAL_DATE_TIME ( #59, #46 ) ;
#80 = TOROIDAL_SURFACE ( 'NONE', #108, 9.000000000000003553, 8.000000000000000000 ) ;
#81 = VERTEX_POINT ( 'NONE', #28 ) ;
#82 = CYLINDRICAL_SURFACE ( 'NONE', #194, 1.499999999999995781 ) ;
#83 = ORIENTED_EDGE ( 'NONE', *, *, #5, .F. ) ;
#84 = DIRECTION ( 'NONE',  ( 3.491481338843133355E-15, -1.244996138440932305E-16, 1.000000000000000000 ) ) ;
#85 = APPROVAL_PERSON_ORGANIZATION ( #210, #107, #195 ) ;
#86 = ORIENTED_EDGE ( 'NONE', *, *, #183, .T. ) ;
#87 = CC_DESIGN_APPROVAL ( #107, ( #125 ) ) ;
#88 = CALENDAR_DATE ( 2021, 15, 11 ) ;
#89 = CC_DESIGN_PERSON_AND_ORGANIZATION_ASSIGNMENT ( #193, #56, ( #125 ) ) ;
#90 = DIRECTION ( 'NONE',  ( 1.000000000000000000, 0.0000000000000000000, 0.0000000000000000000 ) ) ;
#91 = AXIS2_PLACEMENT_3D ( 'NONE', #218, #102, #199 ) ;
#92 = ADVANCED_FACE ( 'NONE', ( #157, #133 ), #82, .T. ) ;
#93 = APPROVAL_ROLE ( '' ) ;
#94 = AXIS2_PLACEMENT_3D ( 'NONE', #184, #11, #115 ) ;
#95 = PERSON_AND_ORGANIZATION ( #113, #62 ) ;
#96 = PLANE ( 'NONE',  #2 ) ;
#97 = ORIENTED_EDGE ( 'NONE', *, *, #135, .T. ) ;
#98 = DIRECTION ( 'NONE',  ( 0.0000000000000000000, -1.000000000000000000, 0.0000000000000000000 ) ) ;
#99 = EDGE_LOOP ( 'NONE', ( #119 ) ) ;
#100 = DIRECTION ( 'NONE',  ( -4.346880784298277610E-31, -1.000000000000000000, -1.244996138440932305E-16 ) ) ;
#101 = EDGE_LOOP ( 'NONE', ( #97 ) ) ;
#102 = DIRECTION ( 'NONE',  ( 3.491481338843133355E-15, -1.244996138440932305E-16, 1.000000000000000000 ) ) ;
#103 = CC_DESIGN_DATE_AND_TIME_ASSIGNMENT ( #3, #148, ( #125 ) ) ;
#104 = APPROVAL_STATUS ( 'not_yet_approved' ) ;
#105 = ORIENTED_EDGE ( 'NONE', *, *, #191, .T. ) ;
#106 = PERSON_AND_ORGANIZATION ( #113, #62 ) ;
#107 = APPROVAL ( #37, 'UNSPECIFIED' ) ;
#108 = AXIS2_PLACEMENT_3D ( 'NONE', #189, #84, #69 ) ;
#109 = CARTESIAN_POINT ( 'NONE',  ( 0.0000000000000000000, 0.0000000000000000000, 0.0000000000000000000 ) ) ;
#110 = CONICAL_SURFACE ( 'NONE', #176, 1.199999999999997957, 0.7853981633974450594 ) ;
#111 = CARTESIAN_POINT ( 'NONE',  ( 1.326762908760390423E-13, -4.653657836759941941E-15, 38.00000000000000000 ) ) ;
#112 = EDGE_LOOP ( 'NONE', ( #22 ) ) ;
#113 = PERSON ( 'UNSPECIFIED', 'UNSPECIFIED', 'UNSPECIFIED', ('UNSPECIFIED'), ('UNSPECIFIED'), ('UNSPECIFIED') ) ;
#114 = CARTESIAN_POINT ( 'NONE',  ( -6.413803915257455362E-31, 2.249659577954771652E-32, -1.836986451539392583E-16 ) ) ;
#115 = DIRECTION ( 'NONE',  ( 0.0000000000000000000, 1.000000000000000000, 0.0000000000000000000 ) ) ;
#116 = EDGE_LOOP ( 'NONE', ( #83 ) ) ;
#117 = DIRECTION ( 'NONE',  ( -4.275831445896958607E-31, -1.000000000000000000, -1.224646799147353207E-16 ) ) ;
#118 = AXIS2_PLACEMENT_3D ( 'NONE', #138, #212, #98 ) ;
#119 = ORIENTED_EDGE ( 'NONE', *, *, #60, .T. ) ;
#120 = PERSON_AND_ORGANIZATION ( #113, #62 ) ;
#121 = FACE_OUTER_BOUND ( 'NONE', #9, .T. ) ;
#122 = LOCAL_TIME ( 15, 53, 34.00000000000000000, #128 ) ;
#123 =( NAMED_UNIT ( * ) SI_UNIT ( $, .STERADIAN. ) SOLID_ANGLE_UNIT ( ) );
#124 = CALENDAR_DATE ( 2021, 15, 11 ) ;
#125 = SECURITY_CLASSIFICATION ( '', '', #163 ) ;
#126 = SHAPE_DEFINITION_REPRESENTATION ( #17, #206 ) ;
#127 = CC_DESIGN_PERSON_AND_ORGANIZATION_ASSIGNMENT ( #120, #72, ( #48 ) ) ;
#128 = COORDINATED_UNIVERSAL_TIME_OFFSET ( 1, 0, .AHEAD. ) ;
#129 = DATE_AND_TIME ( #181, #222 ) ;
#130 = APPROVAL_PERSON_ORGANIZATION ( #75, #1, #93 ) ;
#131 = CARTESIAN_POINT ( 'NONE',  ( 2.444036937190193033E-14, -1.000000000000000888, 6.999999999999999112 ) ) ;
#132 =( GEOMETRIC_REPRESENTATION_CONTEXT ( 3 ) GLOBAL_UNCERTAINTY_ASSIGNED_CONTEXT ( ( #67 ) ) GLOBAL_UNIT_ASSIGNED_CONTEXT ( ( #52, #140, #123 ) ) REPRESENTATION_CONTEXT ( 'NONE', 'WORKASPACE' ) );
#133 = FACE_OUTER_BOUND ( 'NONE', #116, .T. ) ;
#134 = FACE_OUTER_BOUND ( 'NONE', #156, .T. ) ;
#135 = EDGE_CURVE ( 'NONE', #200, #200, #198, .T. ) ;
#136 = VERTEX_POINT ( 'NONE', #131 ) ;
#137 = DESIGN_CONTEXT ( 'detailed design', #142, 'design' ) ;
#138 = CARTESIAN_POINT ( 'NONE',  ( 2.444036937190193033E-14, -8.714972969086524658E-16, 6.999999999999999112 ) ) ;
#139 = CLOSED_SHELL ( 'NONE', ( #205, #55, #153 ) ) ;
#140 =( NAMED_UNIT ( * ) PLANE_ANGLE_UNIT ( ) SI_UNIT ( $, .RADIAN. ) );
#141 = DIRECTION ( 'NONE',  ( 3.491481338843133355E-15, -1.224646799147353207E-16, 1.000000000000000000 ) ) ;
#142 = APPLICATION_CONTEXT ( 'configuration controlled 3d designs of mechanical parts and assemblies' ) ;
#143 = DATE_AND_TIME ( #179, #207 ) ;
#144 = EDGE_CURVE ( 'NONE', #45, #45, #47, .T. ) ;
#145 = MANIFOLD_SOLID_BREP ( 'Corps-Déplacer/Copier1[1]', #40 ) ;
#146 = MANIFOLD_SOLID_BREP ( 'Corps-Déplacer/Copier1[2]', #139 ) ;
#147 = ADVANCED_FACE ( 'NONE', ( #21, #14 ), #110, .T. ) ;
#148 = DATE_TIME_ROLE ( 'classification_date' ) ;
#149 = AXIS2_PLACEMENT_3D ( 'NONE', #53, #202, #90 ) ;
#150 = CARTESIAN_POINT ( 'NONE',  ( 1.316288464743861212E-13, 1.499999999999993117, 37.69999999999999574 ) ) ;
#151 = PLANE ( 'NONE',  #27 ) ;
#152 = DIRECTION ( 'NONE',  ( 3.491481338843133355E-15, -1.224646799147353207E-16, 1.000000000000000000 ) ) ;
#153 = ADVANCED_FACE ( 'NONE', ( #196 ), #38, .F. ) ;
#154 = CARTESIAN_POINT ( 'NONE',  ( 3.416024205785028493E-14, -2.081315732550425611E-15, 9.783882181414991663 ) ) ;
#155 = CC_DESIGN_APPROVAL ( #1, ( #180 ) ) ;
#156 = EDGE_LOOP ( 'NONE', ( #158 ) ) ;
#157 = FACE_OUTER_BOUND ( 'NONE', #41, .T. ) ;
#158 = ORIENTED_EDGE ( 'NONE', *, *, #135, .F. ) ;
#159 = CC_DESIGN_PERSON_AND_ORGANIZATION_ASSIGNMENT ( #95, #57, ( #180 ) ) ;
#160 = AXIS2_PLACEMENT_3D ( 'NONE', #109, #187, #100 ) ;
#161 = APPROVAL_STATUS ( 'not_yet_approved' ) ;
#162 = APPROVAL_PERSON_ORGANIZATION ( #49, #46, #175 ) ;
#163 = SECURITY_CLASSIFICATION_LEVEL ( 'unclassified' ) ;
#164 = AXIS2_PLACEMENT_3D ( 'NONE', #65, #16, #182 ) ;
#165 = CARTESIAN_POINT ( 'NONE',  ( 1.326762908760390423E-13, 1.199999999999993294, 38.00000000000000000 ) ) ;
#166 = ORIENTED_EDGE ( 'NONE', *, *, #191, .F. ) ;
#167 = VERTEX_POINT ( 'NONE', #168 ) ;
#168 = CARTESIAN_POINT ( 'NONE',  ( 3.416024205785028493E-14, 1.499999999999993561, 9.783882181414991663 ) ) ;
#169 = CARTESIAN_POINT ( 'NONE',  ( 1.326762908760390423E-13, 8.998558695971062171E-33, 38.00000000000000000 ) ) ;
#170 = AXIS2_PLACEMENT_3D ( 'NONE', #64, #10, #39 ) ;
#171 = EDGE_LOOP ( 'NONE', ( #15 ) ) ;
#172 = FACE_OUTER_BOUND ( 'NONE', #29, .T. ) ;
#173 = EDGE_LOOP ( 'NONE', ( #43 ) ) ;
#174 = MECHANICAL_CONTEXT ( 'NONE', #186, 'mechanical' ) ;
#175 = APPROVAL_ROLE ( '' ) ;
#176 = AXIS2_PLACEMENT_3D ( 'NONE', #111, #23, #42 ) ;
#177 = AXIS2_PLACEMENT_3D ( 'NONE', #73, #141, #204 ) ;
#178 = PRODUCT_DEFINITION ( 'UNKNOWN', '', #180, #137 ) ;
#179 = CALENDAR_DATE ( 2021, 15, 11 ) ;
#180 = PRODUCT_DEFINITION_FORMATION_WITH_SPECIFIED_SOURCE ( 'ANY', '', #48, .NOT_KNOWN. ) ;
#181 = CALENDAR_DATE ( 2021, 15, 11 ) ;
#182 = DIRECTION ( 'NONE',  ( 0.0000000000000000000, -1.000000000000000000, 0.0000000000000000000 ) ) ;
#183 = EDGE_CURVE ( 'NONE', #26, #26, #4, .T. ) ;
#184 = CARTESIAN_POINT ( 'NONE',  ( 1.316288464743861212E-13, -4.616918432785521081E-15, 37.69999999999999574 ) ) ;
#185 = FACE_OUTER_BOUND ( 'NONE', #99, .T. ) ;
#186 = APPLICATION_CONTEXT ( 'configuration controlled 3d designs of mechanical parts and assemblies' ) ;
#187 = DIRECTION ( 'NONE',  ( 3.491481338843133355E-15, -1.244996138440932305E-16, 1.000000000000000000 ) ) ;
#188 = ADVANCED_FACE ( 'NONE', ( #185, #44 ), #80, .F. ) ;
#189 = CARTESIAN_POINT ( 'NONE',  ( 2.444036937190193033E-14, -1.734723475976807094E-15, 6.999999999999999112 ) ) ;
#190 = ORIENTED_EDGE ( 'NONE', *, *, #60, .F. ) ;
#191 = EDGE_CURVE ( 'NONE', #81, #81, #211, .T. ) ;
#192 = AXIS2_PLACEMENT_3D ( 'NONE', #154, #216, #68 ) ;
#193 = PERSON_AND_ORGANIZATION ( #113, #62 ) ;
#194 = AXIS2_PLACEMENT_3D ( 'NONE', #197, #221, #71 ) ;
#195 = APPROVAL_ROLE ( '' ) ;
#196 = FACE_OUTER_BOUND ( 'NONE', #112, .T. ) ;
#197 = CARTESIAN_POINT ( 'NONE',  ( 0.0000000000000000000, 0.0000000000000000000, 0.0000000000000000000 ) ) ;
#198 = CIRCLE ( 'NONE', #170, 1.199999999999997957 ) ;
#199 = DIRECTION ( 'NONE',  ( -4.346880784298278486E-31, -1.000000000000000000, -1.244996138440932305E-16 ) ) ;
#200 = VERTEX_POINT ( 'NONE', #165 ) ;
#201 = DIRECTION ( 'NONE',  ( 3.491481338843133355E-15, -1.224646799147353207E-16, 1.000000000000000000 ) ) ;
#202 = DIRECTION ( 'NONE',  ( 0.0000000000000000000, 0.0000000000000000000, 1.000000000000000000 ) ) ;
#203 = APPLICATION_PROTOCOL_DEFINITION ( 'international standard', 'config_control_design', 1994, #142 ) ;
#204 = DIRECTION ( 'NONE',  ( -4.275831445896958607E-31, -1.000000000000000000, -1.224646799147353207E-16 ) ) ;
#205 = ADVANCED_FACE ( 'NONE', ( #172 ), #96, .T. ) ;
#206 = ADVANCED_BREP_SHAPE_REPRESENTATION ( '63699', ( #145, #146, #149 ), #132 ) ;
#207 = LOCAL_TIME ( 15, 53, 34.00000000000000000, #77 ) ;
#208 = APPROVAL_DATE_TIME ( #143, #107 ) ;
#209 = DATE_TIME_ROLE ( 'creation_date' ) ;
#210 = PERSON_AND_ORGANIZATION ( #113, #62 ) ;
#211 = CIRCLE ( 'NONE', #118, 1.000000000000000000 ) ;
#212 = DIRECTION ( 'NONE',  ( 3.491481338843133355E-15, -1.244996138440932305E-16, 1.000000000000000000 ) ) ;
#213 = CYLINDRICAL_SURFACE ( 'NONE', #160, 1.000000000000000000 ) ;
#214 = EDGE_LOOP ( 'NONE', ( #166 ) ) ;
#215 = FACE_OUTER_BOUND ( 'NONE', #214, .T. ) ;
#216 = DIRECTION ( 'NONE',  ( -3.491481338843133355E-15, 1.244996138440932305E-16, -1.000000000000000000 ) ) ;
#217 = LOCAL_TIME ( 15, 53, 34.00000000000000000, #18 ) ;
#218 = CARTESIAN_POINT ( 'NONE',  ( -4.346880784298276734E-31, 1.550015384732832965E-32, -1.244996138440932305E-16 ) ) ;
#219 = DIRECTION ( 'NONE',  ( -3.491481338843133355E-15, 1.224646799147353207E-16, -1.000000000000000000 ) ) ;
#220 = CC_DESIGN_PERSON_AND_ORGANIZATION_ASSIGNMENT ( #106, #6, ( #180 ) ) ;
#221 = DIRECTION ( 'NONE',  ( -3.491481338843133355E-15, 1.224646799147353207E-16, -1.000000000000000000 ) ) ;
#222 = LOCAL_TIME ( 15, 53, 34.00000000000000000, #58 ) ;
#223 = PLANE ( 'NONE',  #177 ) ;
ENDSEC;
END-ISO-10303-21;
