ISO-10303-21;
HEADER;
FILE_DESCRIPTION (( 'STEP AP203' ),
    '1' );
FILE_NAME ('63698.step',
    '2021-11-15T14:53:33',
    ( '' ),
    ( '' ),
    'SwSTEP 2.0',
    'SolidWorks 2019',
    '' );
FILE_SCHEMA (( 'CONFIG_CONTROL_DESIGN' ));
ENDSEC;

DATA;
#1 = ORIENTED_EDGE ( 'NONE', *, *, #64, .T. ) ;
#2 = APPROVAL_PERSON_ORGANIZATION ( #156, #188, #190 ) ;
#3 = CC_DESIGN_DATE_AND_TIME_ASSIGNMENT ( #139, #55, ( #83 ) ) ;
#4 = EDGE_LOOP ( 'NONE', ( #174 ) ) ;
#5 = DIRECTION ( 'NONE',  ( 0.0000000000000000000, -1.000000000000000000, 0.0000000000000000000 ) ) ;
#6 = DIRECTION ( 'NONE',  ( -3.491481338843133355E-15, 1.224646799147353207E-16, -1.000000000000000000 ) ) ;
#7 = FACE_OUTER_BOUND ( 'NONE', #192, .T. ) ;
#8 = FACE_OUTER_BOUND ( 'NONE', #76, .T. ) ;
#9 = LOCAL_TIME ( 15, 53, 33.00000000000000000, #202 ) ;
#10 = DIRECTION ( 'NONE',  ( -3.491481338843133355E-15, 1.224646799147353207E-16, -1.000000000000000000 ) ) ;
#11 =( NAMED_UNIT ( * ) PLANE_ANGLE_UNIT ( ) SI_UNIT ( $, .RADIAN. ) );
#12 = PERSON_AND_ORGANIZATION ( #133, #155 ) ;
#13 = PERSON_AND_ORGANIZATION ( #133, #155 ) ;
#14 = CONICAL_SURFACE ( 'NONE', #98, 1.199999999999997957, 0.7853981633974450594 ) ;
#15 = CC_DESIGN_PERSON_AND_ORGANIZATION_ASSIGNMENT ( #189, #152, ( #28 ) ) ;
#16 = APPROVAL_STATUS ( 'not_yet_approved' ) ;
#17 = CIRCLE ( 'NONE', #141, 0.7500000000000012212 ) ;
#18 = SECURITY_CLASSIFICATION_LEVEL ( 'unclassified' ) ;
#19 = EDGE_LOOP ( 'NONE', ( #42 ) ) ;
#20 = ORIENTED_EDGE ( 'NONE', *, *, #40, .F. ) ;
#21 = ADVANCED_FACE ( 'NONE', ( #196, #164 ), #58, .T. ) ;
#22 = AXIS2_PLACEMENT_3D ( 'NONE', #77, #10, #80 ) ;
#23 = DIRECTION ( 'NONE',  ( 3.491481338843133355E-15, -1.244996138440932305E-16, 1.000000000000000000 ) ) ;
#24 = FACE_BOUND ( 'NONE', #212, .T. ) ;
#25 = CYLINDRICAL_SURFACE ( 'NONE', #46, 0.7500000000000004441 ) ;
#26 = APPLICATION_CONTEXT ( 'configuration controlled 3d designs of mechanical parts and assemblies' ) ;
#27 = CARTESIAN_POINT ( 'NONE',  ( 1.396592535537253342E-14, -4.979984553763729221E-16, 4.000000000000000000 ) ) ;
#28 = PRODUCT ( '63698', '63698', '', ( #88 ) ) ;
#29 = DIRECTION ( 'NONE',  ( 4.275831445896958607E-31, 1.000000000000000000, 1.224646799147353207E-16 ) ) ;
#30 = CIRCLE ( 'NONE', #22, 1.499999999999997558 ) ;
#31 = DIRECTION ( 'NONE',  ( 1.000000000000000000, 0.0000000000000000000, 0.0000000000000000000 ) ) ;
#32 = APPLICATION_PROTOCOL_DEFINITION ( 'international standard', 'config_control_design', 1994, #26 ) ;
#33 = APPROVAL ( #16, 'UNSPECIFIED' ) ;
#34 = CARTESIAN_POINT ( 'NONE',  ( 1.316288464743861212E-13, 1.499999999999993117, 37.69999999999999574 ) ) ;
#35 = CARTESIAN_POINT ( 'NONE',  ( 0.0000000000000000000, 0.0000000000000000000, 0.0000000000000000000 ) ) ;
#36 =( NAMED_UNIT ( * ) SI_UNIT ( $, .STERADIAN. ) SOLID_ANGLE_UNIT ( ) );
#37 = COORDINATED_UNIVERSAL_TIME_OFFSET ( 1, 0, .AHEAD. ) ;
#38 = EDGE_LOOP ( 'NONE', ( #209 ) ) ;
#39 = APPLICATION_CONTEXT ( 'configuration controlled 3d designs of mechanical parts and assemblies' ) ;
#40 = EDGE_CURVE ( 'NONE', #137, #137, #113, .T. ) ;
#41 = ORIENTED_EDGE ( 'NONE', *, *, #222, .F. ) ;
#42 = ORIENTED_EDGE ( 'NONE', *, *, #143, .F. ) ;
#43 = LOCAL_TIME ( 15, 53, 33.00000000000000000, #170 ) ;
#44 = DIRECTION ( 'NONE',  ( -3.491481338843133355E-15, 1.224646799147353207E-16, -1.000000000000000000 ) ) ;
#45 = PLANE ( 'NONE',  #126 ) ;
#46 = AXIS2_PLACEMENT_3D ( 'NONE', #199, #161, #162 ) ;
#47 = CARTESIAN_POINT ( 'NONE',  ( 1.326762908760390423E-13, -4.653657836759941941E-15, 38.00000000000000000 ) ) ;
#48 = CC_DESIGN_PERSON_AND_ORGANIZATION_ASSIGNMENT ( #220, #91, ( #53 ) ) ;
#49 = PLANE ( 'NONE',  #136 ) ;
#50 = APPROVAL_PERSON_ORGANIZATION ( #13, #205, #135 ) ;
#51 = CALENDAR_DATE ( 2021, 15, 11 ) ;
#52 = VERTEX_POINT ( 'NONE', #120 ) ;
#53 = PRODUCT_DEFINITION_FORMATION_WITH_SPECIFIED_SOURCE ( 'ANY', '', #28, .NOT_KNOWN. ) ;
#54 = VERTEX_POINT ( 'NONE', #166 ) ;
#55 = DATE_TIME_ROLE ( 'classification_date' ) ;
#56 = CLOSED_SHELL ( 'NONE', ( #21, #81, #57, #214, #181 ) ) ;
#57 = ADVANCED_FACE ( 'NONE', ( #97 ), #49, .F. ) ;
#58 = CYLINDRICAL_SURFACE ( 'NONE', #206, 1.499999999999995781 ) ;
#59 = AXIS2_PLACEMENT_3D ( 'NONE', #160, #129, #213 ) ;
#60 = PLANE ( 'NONE',  #59 ) ;
#61 = CARTESIAN_POINT ( 'NONE',  ( 1.396592535537253342E-14, 1.124819836996387869E-32, 4.000000000000000000 ) ) ;
#62 = DIRECTION ( 'NONE',  ( -4.275831445896958607E-31, -1.000000000000000000, -1.224646799147353207E-16 ) ) ;
#63 = AXIS2_PLACEMENT_3D ( 'NONE', #177, #114, #180 ) ;
#64 = EDGE_CURVE ( 'NONE', #221, #221, #121, .T. ) ;
#65 = ADVANCED_BREP_SHAPE_REPRESENTATION ( '63698', ( #215, #71, #198 ), #73 ) ;
#66 = CARTESIAN_POINT ( 'NONE',  ( 1.326762908760390423E-13, 8.998558695971062171E-33, 38.00000000000000000 ) ) ;
#67 = COORDINATED_UNIVERSAL_TIME_OFFSET ( 1, 0, .AHEAD. ) ;
#68 = LOCAL_TIME ( 15, 53, 33.00000000000000000, #67 ) ;
#69 = VERTEX_POINT ( 'NONE', #34 ) ;
#70 = VERTEX_POINT ( 'NONE', #104 ) ;
#71 = MANIFOLD_SOLID_BREP ( 'Corps-Déplacer/Copier1[2]', #87 ) ;
#72 = PRODUCT_DEFINITION ( 'UNKNOWN', '', #53, #186 ) ;
#73 =( GEOMETRIC_REPRESENTATION_CONTEXT ( 3 ) GLOBAL_UNCERTAINTY_ASSIGNED_CONTEXT ( ( #167 ) ) GLOBAL_UNIT_ASSIGNED_CONTEXT ( ( #150, #11, #36 ) ) REPRESENTATION_CONTEXT ( 'NONE', 'WORKASPACE' ) );
#74 = PERSON_AND_ORGANIZATION ( #133, #155 ) ;
#75 = ORIENTED_EDGE ( 'NONE', *, *, #138, .T. ) ;
#76 = EDGE_LOOP ( 'NONE', ( #1 ) ) ;
#77 = CARTESIAN_POINT ( 'NONE',  ( 1.316288464743861212E-13, -4.616918432785521081E-15, 37.69999999999999574 ) ) ;
#78 = CC_DESIGN_SECURITY_CLASSIFICATION ( #83, ( #53 ) ) ;
#79 = DIRECTION ( 'NONE',  ( 3.491481338843133355E-15, -1.224646799147353207E-16, 1.000000000000000000 ) ) ;
#80 = DIRECTION ( 'NONE',  ( 0.0000000000000000000, 1.000000000000000000, 0.0000000000000000000 ) ) ;
#81 = ADVANCED_FACE ( 'NONE', ( #182, #24 ), #14, .T. ) ;
#82 = CARTESIAN_POINT ( 'NONE',  ( 1.396592535537253342E-14, -4.979984553763729221E-16, 4.000000000000000000 ) ) ;
#83 = SECURITY_CLASSIFICATION ( '', '', #18 ) ;
#84 = DIRECTION ( 'NONE',  ( -3.491481338843133355E-15, 1.244996138440932305E-16, -1.000000000000000000 ) ) ;
#85 = DATE_TIME_ROLE ( 'creation_date' ) ;
#86 = PERSON_AND_ORGANIZATION_ROLE ( 'creator' ) ;
#87 = CLOSED_SHELL ( 'NONE', ( #100, #197, #157 ) ) ;
#88 = MECHANICAL_CONTEXT ( 'NONE', #26, 'mechanical' ) ;
#89 = APPROVAL_ROLE ( '' ) ;
#90 = CC_DESIGN_PERSON_AND_ORGANIZATION_ASSIGNMENT ( #12, #86, ( #53 ) ) ;
#91 = PERSON_AND_ORGANIZATION_ROLE ( 'design_supplier' ) ;
#92 = CC_DESIGN_APPROVAL ( #188, ( #83 ) ) ;
#93 = DATE_AND_TIME ( #171, #131 ) ;
#94 = EDGE_LOOP ( 'NONE', ( #41 ) ) ;
#95 = EDGE_LOOP ( 'NONE', ( #20 ) ) ;
#96 = ORIENTED_EDGE ( 'NONE', *, *, #119, .F. ) ;
#97 = FACE_OUTER_BOUND ( 'NONE', #107, .T. ) ;
#98 = AXIS2_PLACEMENT_3D ( 'NONE', #47, #6, #110 ) ;
#99 = DIRECTION ( 'NONE',  ( -3.491481338843133355E-15, 1.224646799147353207E-16, -1.000000000000000000 ) ) ;
#100 = ADVANCED_FACE ( 'NONE', ( #146 ), #101, .T. ) ;
#101 = PLANE ( 'NONE',  #194 ) ;
#102 = DIRECTION ( 'NONE',  ( -4.275831445896958607E-31, -1.000000000000000000, -1.224646799147353207E-16 ) ) ;
#103 = APPROVAL_PERSON_ORGANIZATION ( #169, #33, #89 ) ;
#104 = CARTESIAN_POINT ( 'NONE',  ( 1.396592535537253342E-14, -0.7500000000000017764, 4.000000000000000000 ) ) ;
#105 = DIRECTION ( 'NONE',  ( 0.0000000000000000000, 0.0000000000000000000, 1.000000000000000000 ) ) ;
#106 = CC_DESIGN_PERSON_AND_ORGANIZATION_ASSIGNMENT ( #204, #185, ( #72 ) ) ;
#107 = EDGE_LOOP ( 'NONE', ( #96 ) ) ;
#108 = ORIENTED_EDGE ( 'NONE', *, *, #138, .F. ) ;
#109 = ORIENTED_EDGE ( 'NONE', *, *, #222, .T. ) ;
#110 = DIRECTION ( 'NONE',  ( 0.0000000000000000000, 1.000000000000000000, 0.0000000000000000000 ) ) ;
#111 = CARTESIAN_POINT ( 'NONE',  ( 1.396592535537253342E-14, 1.124819836996387869E-32, 4.000000000000000000 ) ) ;
#112 = DIRECTION ( 'NONE',  ( 0.0000000000000000000, 1.000000000000000000, 0.0000000000000000000 ) ) ;
#113 = CIRCLE ( 'NONE', #187, 0.7499999999999997780 ) ;
#114 = DIRECTION ( 'NONE',  ( -3.491481338843133355E-15, 1.224646799147353207E-16, -1.000000000000000000 ) ) ;
#115 = CARTESIAN_POINT ( 'NONE',  ( 0.0000000000000000000, 0.0000000000000000000, 0.0000000000000000000 ) ) ;
#116 = CIRCLE ( 'NONE', #63, 1.199999999999997957 ) ;
#117 = DATE_AND_TIME ( #51, #9 ) ;
#118 = APPLICATION_PROTOCOL_DEFINITION ( 'international standard', 'config_control_design', 1994, #39 ) ;
#119 = EDGE_CURVE ( 'NONE', #52, #52, #116, .T. ) ;
#120 = CARTESIAN_POINT ( 'NONE',  ( 1.326762908760390423E-13, 1.199999999999993294, 38.00000000000000000 ) ) ;
#121 = CIRCLE ( 'NONE', #211, 1.499999999999995781 ) ;
#122 = TOROIDAL_SURFACE ( 'NONE', #151, 8.750000000000000000, 8.000000000000000000 ) ;
#123 = PERSON_AND_ORGANIZATION_ROLE ( 'classification_officer' ) ;
#124 = CC_DESIGN_DATE_AND_TIME_ASSIGNMENT ( #165, #85, ( #72 ) ) ;
#125 = EDGE_LOOP ( 'NONE', ( #75 ) ) ;
#126 = AXIS2_PLACEMENT_3D ( 'NONE', #111, #79, #62 ) ;
#127 = DIRECTION ( 'NONE',  ( -4.346880784298276734E-31, -1.000000000000000000, -1.244996138440932305E-16 ) ) ;
#128 = PRODUCT_DEFINITION_SHAPE ( 'NONE', 'NONE',  #72 ) ;
#129 = DIRECTION ( 'NONE',  ( 3.491481338843133355E-15, -1.224646799147353207E-16, 1.000000000000000000 ) ) ;
#130 = FACE_OUTER_BOUND ( 'NONE', #38, .T. ) ;
#131 = LOCAL_TIME ( 15, 53, 33.00000000000000000, #140 ) ;
#132 = DIRECTION ( 'NONE',  ( -4.410296412723971439E-31, -1.000000000000000000, -1.244996138440932305E-16 ) ) ;
#133 = PERSON ( 'UNSPECIFIED', 'UNSPECIFIED', 'UNSPECIFIED', ('UNSPECIFIED'), ('UNSPECIFIED'), ('UNSPECIFIED') ) ;
#134 = DIRECTION ( 'NONE',  ( 0.0000000000000000000, -1.000000000000000000, 0.0000000000000000000 ) ) ;
#135 = APPROVAL_ROLE ( '' ) ;
#136 = AXIS2_PLACEMENT_3D ( 'NONE', #66, #44, #178 ) ;
#137 = VERTEX_POINT ( 'NONE', #153 ) ;
#138 = EDGE_CURVE ( 'NONE', #70, #70, #17, .T. ) ;
#139 = DATE_AND_TIME ( #208, #191 ) ;
#140 = COORDINATED_UNIVERSAL_TIME_OFFSET ( 1, 0, .AHEAD. ) ;
#141 = AXIS2_PLACEMENT_3D ( 'NONE', #27, #23, #5 ) ;
#142 = EDGE_LOOP ( 'NONE', ( #175 ) ) ;
#143 = EDGE_CURVE ( 'NONE', #69, #69, #30, .T. ) ;
#144 = FACE_OUTER_BOUND ( 'NONE', #95, .T. ) ;
#145 = DIRECTION ( 'NONE',  ( 3.491481338843133355E-15, -1.244996138440932305E-16, 1.000000000000000000 ) ) ;
#146 = FACE_OUTER_BOUND ( 'NONE', #125, .T. ) ;
#147 = CARTESIAN_POINT ( 'NONE',  ( 1.396592535537253027E-14, 0.0000000000000000000, 3.999999999999999112 ) ) ;
#148 = CIRCLE ( 'NONE', #168, 0.7500000000000012212 ) ;
#149 = CALENDAR_DATE ( 2021, 15, 11 ) ;
#150 =( LENGTH_UNIT ( ) NAMED_UNIT ( * ) SI_UNIT ( .MILLI., .METRE. ) );
#151 = AXIS2_PLACEMENT_3D ( 'NONE', #147, #217, #132 ) ;
#152 = PERSON_AND_ORGANIZATION_ROLE ( 'design_owner' ) ;
#153 = CARTESIAN_POINT ( 'NONE',  ( -6.520321176447413788E-31, -0.7499999999999997780, -1.867494207661397965E-16 ) ) ;
#154 = APPROVAL_DATE_TIME ( #93, #188 ) ;
#155 = ORGANIZATION ( 'UNSPECIFIED', 'UNSPECIFIED', '' ) ;
#156 = PERSON_AND_ORGANIZATION ( #133, #155 ) ;
#157 = ADVANCED_FACE ( 'NONE', ( #144 ), #60, .F. ) ;
#158 = CARTESIAN_POINT ( 'NONE',  ( -3.260160588223706894E-31, 1.162511538549624587E-32, -9.337471038306989825E-17 ) ) ;
#159 = CC_DESIGN_APPROVAL ( #33, ( #72 ) ) ;
#160 = CARTESIAN_POINT ( 'NONE',  ( -6.413803915257455362E-31, 2.249659577954771652E-32, -1.836986451539392583E-16 ) ) ;
#161 = DIRECTION ( 'NONE',  ( 3.491481338843133355E-15, -1.244996138440932305E-16, 1.000000000000000000 ) ) ;
#162 = DIRECTION ( 'NONE',  ( -4.346880784298277610E-31, -1.000000000000000000, -1.244996138440932305E-16 ) ) ;
#163 = CC_DESIGN_PERSON_AND_ORGANIZATION_ASSIGNMENT ( #74, #123, ( #83 ) ) ;
#164 = FACE_OUTER_BOUND ( 'NONE', #142, .T. ) ;
#165 = DATE_AND_TIME ( #183, #68 ) ;
#166 = CARTESIAN_POINT ( 'NONE',  ( 1.396592535537253342E-14, -0.7500000000000017764, 4.000000000000000000 ) ) ;
#167 = UNCERTAINTY_MEASURE_WITH_UNIT (LENGTH_MEASURE( 1.000000000000000082E-05 ), #150, 'distance_accuracy_value', 'NONE');
#168 = AXIS2_PLACEMENT_3D ( 'NONE', #82, #200, #134 ) ;
#169 = PERSON_AND_ORGANIZATION ( #133, #155 ) ;
#170 = COORDINATED_UNIVERSAL_TIME_OFFSET ( 1, 0, .AHEAD. ) ;
#171 = CALENDAR_DATE ( 2021, 15, 11 ) ;
#172 = EDGE_LOOP ( 'NONE', ( #108 ) ) ;
#173 = PRODUCT_RELATED_PRODUCT_CATEGORY ( 'detail', '', ( #28 ) ) ;
#174 = ORIENTED_EDGE ( 'NONE', *, *, #143, .T. ) ;
#175 = ORIENTED_EDGE ( 'NONE', *, *, #64, .F. ) ;
#176 = CC_DESIGN_APPROVAL ( #205, ( #53 ) ) ;
#177 = CARTESIAN_POINT ( 'NONE',  ( 1.326762908760390423E-13, -4.653657836759941941E-15, 38.00000000000000000 ) ) ;
#178 = DIRECTION ( 'NONE',  ( 4.275831445896958607E-31, 1.000000000000000000, 1.224646799147353207E-16 ) ) ;
#179 = FACE_OUTER_BOUND ( 'NONE', #172, .T. ) ;
#180 = DIRECTION ( 'NONE',  ( 0.0000000000000000000, 1.000000000000000000, 0.0000000000000000000 ) ) ;
#181 = ADVANCED_FACE ( 'NONE', ( #195 ), #45, .F. ) ;
#182 = FACE_OUTER_BOUND ( 'NONE', #19, .T. ) ;
#183 = CALENDAR_DATE ( 2021, 15, 11 ) ;
#184 = APPROVAL_DATE_TIME ( #117, #205 ) ;
#185 = PERSON_AND_ORGANIZATION_ROLE ( 'creator' ) ;
#186 = DESIGN_CONTEXT ( 'detailed design', #39, 'design' ) ;
#187 = AXIS2_PLACEMENT_3D ( 'NONE', #158, #145, #127 ) ;
#188 = APPROVAL ( #223, 'UNSPECIFIED' ) ;
#189 = PERSON_AND_ORGANIZATION ( #133, #155 ) ;
#190 = APPROVAL_ROLE ( '' ) ;
#191 = LOCAL_TIME ( 15, 53, 33.00000000000000000, #37 ) ;
#192 = EDGE_LOOP ( 'NONE', ( #109 ) ) ;
#193 = ORIENTED_EDGE ( 'NONE', *, *, #119, .T. ) ;
#194 = AXIS2_PLACEMENT_3D ( 'NONE', #61, #216, #102 ) ;
#195 = FACE_OUTER_BOUND ( 'NONE', #94, .T. ) ;
#196 = FACE_OUTER_BOUND ( 'NONE', #4, .T. ) ;
#197 = ADVANCED_FACE ( 'NONE', ( #130, #179 ), #25, .T. ) ;
#198 = AXIS2_PLACEMENT_3D ( 'NONE', #35, #105, #31 ) ;
#199 = CARTESIAN_POINT ( 'NONE',  ( 0.0000000000000000000, 0.0000000000000000000, 0.0000000000000000000 ) ) ;
#200 = DIRECTION ( 'NONE',  ( 3.491481338843133355E-15, -1.244996138440932305E-16, 1.000000000000000000 ) ) ;
#201 = APPROVAL_DATE_TIME ( #218, #33 ) ;
#202 = COORDINATED_UNIVERSAL_TIME_OFFSET ( 1, 0, .AHEAD. ) ;
#203 = CARTESIAN_POINT ( 'NONE',  ( 2.577389637849560049E-14, 1.499999999999995337, 7.381937314617158741 ) ) ;
#204 = PERSON_AND_ORGANIZATION ( #133, #155 ) ;
#205 = APPROVAL ( #219, 'UNSPECIFIED' ) ;
#206 = AXIS2_PLACEMENT_3D ( 'NONE', #115, #99, #29 ) ;
#207 = SHAPE_DEFINITION_REPRESENTATION ( #128, #65 ) ;
#208 = CALENDAR_DATE ( 2021, 15, 11 ) ;
#209 = ORIENTED_EDGE ( 'NONE', *, *, #40, .T. ) ;
#210 = CARTESIAN_POINT ( 'NONE',  ( 2.577389637849560049E-14, -4.210498897147660193E-16, 7.381937314617158741 ) ) ;
#211 = AXIS2_PLACEMENT_3D ( 'NONE', #210, #84, #112 ) ;
#212 = EDGE_LOOP ( 'NONE', ( #193 ) ) ;
#213 = DIRECTION ( 'NONE',  ( -4.275831445896958607E-31, -1.000000000000000000, -1.224646799147353207E-16 ) ) ;
#214 = ADVANCED_FACE ( 'NONE', ( #7, #8 ), #122, .F. ) ;
#215 = MANIFOLD_SOLID_BREP ( 'Corps-Déplacer/Copier1[1]', #56 ) ;
#216 = DIRECTION ( 'NONE',  ( 3.491481338843133355E-15, -1.224646799147353207E-16, 1.000000000000000000 ) ) ;
#217 = DIRECTION ( 'NONE',  ( 3.491481338843133355E-15, -1.244996138440932305E-16, 1.000000000000000000 ) ) ;
#218 = DATE_AND_TIME ( #149, #43 ) ;
#219 = APPROVAL_STATUS ( 'not_yet_approved' ) ;
#220 = PERSON_AND_ORGANIZATION ( #133, #155 ) ;
#221 = VERTEX_POINT ( 'NONE', #203 ) ;
#222 = EDGE_CURVE ( 'NONE', #54, #54, #148, .T. ) ;
#223 = APPROVAL_STATUS ( 'not_yet_approved' ) ;
ENDSEC;
END-ISO-10303-21;
