ISO-10303-21;
HEADER;
FILE_DESCRIPTION (( 'STEP AP203' ),
    '1' );
FILE_NAME ('63697.step',
    '2021-11-15T14:53:33',
    ( '' ),
    ( '' ),
    'SwSTEP 2.0',
    'SolidWorks 2019',
    '' );
FILE_SCHEMA (( 'CONFIG_CONTROL_DESIGN' ));
ENDSEC;

DATA;
#1 = AXIS2_PLACEMENT_3D ( 'NONE', #156, #195, #144 ) ;
#2 = LOCAL_TIME ( 15, 53, 33.00000000000000000, #204 ) ;
#3 = APPROVAL ( #183, 'UNSPECIFIED' ) ;
#4 = DIRECTION ( 'NONE',  ( 3.491481338843133355E-15, -1.224646799147353207E-16, 1.000000000000000000 ) ) ;
#5 = EDGE_LOOP ( 'NONE', ( #86 ) ) ;
#6 = LOCAL_TIME ( 15, 53, 33.00000000000000000, #199 ) ;
#7 = DATE_TIME_ROLE ( 'creation_date' ) ;
#8 = APPROVAL ( #52, 'UNSPECIFIED' ) ;
#9 = CARTESIAN_POINT ( 'NONE',  ( 1.326762908760390423E-13, 8.998558695971062171E-33, 38.00000000000000000 ) ) ;
#10 = ORIENTED_EDGE ( 'NONE', *, *, #223, .F. ) ;
#11 = DIRECTION ( 'NONE',  ( 0.0000000000000000000, 1.000000000000000000, 0.0000000000000000000 ) ) ;
#12 = AXIS2_PLACEMENT_3D ( 'NONE', #107, #58, #111 ) ;
#13 = DIRECTION ( 'NONE',  ( -3.491481338843133355E-15, 1.224646799147353207E-16, -1.000000000000000000 ) ) ;
#14 = ADVANCED_FACE ( 'NONE', ( #202, #224 ), #237, .T. ) ;
#15 = CLOSED_SHELL ( 'NONE', ( #157, #210, #44 ) ) ;
#16 = CARTESIAN_POINT ( 'NONE',  ( 1.047444401652940322E-14, -0.4999999999999985012, 3.000000000000000888 ) ) ;
#17 = FACE_OUTER_BOUND ( 'NONE', #19, .T. ) ;
#18 = APPROVAL ( #169, 'UNSPECIFIED' ) ;
#19 = EDGE_LOOP ( 'NONE', ( #128 ) ) ;
#20 = APPROVAL_PERSON_ORGANIZATION ( #34, #8, #108 ) ;
#21 = ORIENTED_EDGE ( 'NONE', *, *, #223, .T. ) ;
#22 = DIRECTION ( 'NONE',  ( -3.491481338843133355E-15, 1.224646799147353207E-16, -1.000000000000000000 ) ) ;
#23 = APPLICATION_PROTOCOL_DEFINITION ( 'international standard', 'config_control_design', 1994, #91 ) ;
#24 =( LENGTH_UNIT ( ) NAMED_UNIT ( * ) SI_UNIT ( .MILLI., .METRE. ) );
#25 = FACE_OUTER_BOUND ( 'NONE', #163, .T. ) ;
#26 = AXIS2_PLACEMENT_3D ( 'NONE', #68, #4, #66 ) ;
#27 = DIRECTION ( 'NONE',  ( -3.491481338843133355E-15, 1.243677319851284845E-16, -1.000000000000000000 ) ) ;
#28 = PLANE ( 'NONE',  #26 ) ;
#29 = SECURITY_CLASSIFICATION ( '', '', #39 ) ;
#30 = EDGE_LOOP ( 'NONE', ( #65 ) ) ;
#31 = PLANE ( 'NONE',  #62 ) ;
#32 = EDGE_CURVE ( 'NONE', #35, #35, #122, .T. ) ;
#33 = EDGE_LOOP ( 'NONE', ( #179 ) ) ;
#34 = PERSON_AND_ORGANIZATION ( #102, #82 ) ;
#35 = VERTEX_POINT ( 'NONE', #94 ) ;
#36 = TOROIDAL_SURFACE ( 'NONE', #64, 2.499999999999997780, 2.000000000000000000 ) ;
#37 = CC_DESIGN_APPROVAL ( #3, ( #119 ) ) ;
#38 = CARTESIAN_POINT ( 'NONE',  ( 1.047444401652940322E-14, -3.731031959553856014E-16, 3.000000000000000888 ) ) ;
#39 = SECURITY_CLASSIFICATION_LEVEL ( 'unclassified' ) ;
#40 = CARTESIAN_POINT ( 'NONE',  ( 1.047444401652940164E-14, -4.336808689942017736E-16, 3.000000000000000444 ) ) ;
#41 = COORDINATED_UNIVERSAL_TIME_OFFSET ( 1, 0, .AHEAD. ) ;
#42 = AXIS2_PLACEMENT_3D ( 'NONE', #145, #125, #220 ) ;
#43 = CC_DESIGN_PERSON_AND_ORGANIZATION_ASSIGNMENT ( #161, #109, ( #119 ) ) ;
#44 = ADVANCED_FACE ( 'NONE', ( #92 ), #185, .F. ) ;
#45 = CARTESIAN_POINT ( 'NONE',  ( 1.316288464743861212E-13, -4.616918432785521081E-15, 37.69999999999999574 ) ) ;
#46 = CC_DESIGN_DATE_AND_TIME_ASSIGNMENT ( #90, #115, ( #29 ) ) ;
#47 = ORIENTED_EDGE ( 'NONE', *, *, #121, .T. ) ;
#48 = CYLINDRICAL_SURFACE ( 'NONE', #206, 1.499999999999995781 ) ;
#49 = FACE_BOUND ( 'NONE', #142, .T. ) ;
#50 = PERSON_AND_ORGANIZATION ( #102, #82 ) ;
#51 = CARTESIAN_POINT ( 'NONE',  ( 1.326762908760390423E-13, 1.199999999999993294, 38.00000000000000000 ) ) ;
#52 = APPROVAL_STATUS ( 'not_yet_approved' ) ;
#53 = CARTESIAN_POINT ( 'NONE',  ( 0.0000000000000000000, 0.0000000000000000000, 0.0000000000000000000 ) ) ;
#54 = CIRCLE ( 'NONE', #131, 1.499999999999997558 ) ;
#55 = ORIENTED_EDGE ( 'NONE', *, *, #95, .T. ) ;
#56 = APPROVAL_ROLE ( '' ) ;
#57 = PRODUCT ( '63697', '63697', '', ( #59 ) ) ;
#58 = DIRECTION ( 'NONE',  ( 3.491481338843133355E-15, -1.243677319851284845E-16, 1.000000000000000000 ) ) ;
#59 = MECHANICAL_CONTEXT ( 'NONE', #91, 'mechanical' ) ;
#60 = PERSON_AND_ORGANIZATION_ROLE ( 'classification_officer' ) ;
#61 = CC_DESIGN_PERSON_AND_ORGANIZATION_ASSIGNMENT ( #136, #234, ( #235 ) ) ;
#62 = AXIS2_PLACEMENT_3D ( 'NONE', #9, #22, #126 ) ;
#63 = DATE_AND_TIME ( #209, #6 ) ;
#64 = AXIS2_PLACEMENT_3D ( 'NONE', #40, #98, #139 ) ;
#65 = ORIENTED_EDGE ( 'NONE', *, *, #196, .T. ) ;
#66 = DIRECTION ( 'NONE',  ( -4.275831445896958607E-31, -1.000000000000000000, -1.224646799147353207E-16 ) ) ;
#67 = LOCAL_TIME ( 15, 53, 33.00000000000000000, #162 ) ;
#68 = CARTESIAN_POINT ( 'NONE',  ( 1.047444401652940322E-14, 1.124819836996387869E-32, 3.000000000000000888 ) ) ;
#69 = ORIENTED_EDGE ( 'NONE', *, *, #32, .T. ) ;
#70 = FACE_OUTER_BOUND ( 'NONE', #182, .T. ) ;
#71 = EDGE_LOOP ( 'NONE', ( #130 ) ) ;
#72 = CIRCLE ( 'NONE', #135, 0.4999999999999981681 ) ;
#73 = APPROVAL_ROLE ( '' ) ;
#74 = PRODUCT_RELATED_PRODUCT_CATEGORY ( 'detail', '', ( #57 ) ) ;
#75 = UNCERTAINTY_MEASURE_WITH_UNIT (LENGTH_MEASURE( 1.000000000000000082E-05 ), #24, 'distance_accuracy_value', 'NONE');
#76 = CARTESIAN_POINT ( 'NONE',  ( -2.171138076901594928E-31, -1.511206867367552075E-32, -6.218386599256404504E-17 ) ) ;
#77 = PERSON_AND_ORGANIZATION ( #102, #82 ) ;
#78 = CIRCLE ( 'NONE', #116, 1.499999999999995781 ) ;
#79 = DIRECTION ( 'NONE',  ( -4.342276153803204744E-31, -1.000000000000000000, -1.243677319851284599E-16 ) ) ;
#80 = PERSON_AND_ORGANIZATION ( #102, #82 ) ;
#81 = PERSON_AND_ORGANIZATION ( #102, #82 ) ;
#82 = ORGANIZATION ( 'UNSPECIFIED', 'UNSPECIFIED', '' ) ;
#83 = AXIS2_PLACEMENT_3D ( 'NONE', #120, #99, #85 ) ;
#84 =( NAMED_UNIT ( * ) SI_UNIT ( $, .STERADIAN. ) SOLID_ANGLE_UNIT ( ) );
#85 = DIRECTION ( 'NONE',  ( -4.275831445896958607E-31, -1.000000000000000000, -1.224646799147353207E-16 ) ) ;
#86 = ORIENTED_EDGE ( 'NONE', *, *, #121, .F. ) ;
#87 = ADVANCED_BREP_SHAPE_REPRESENTATION ( '63697', ( #194, #193, #140 ), #207 ) ;
#88 = DIRECTION ( 'NONE',  ( -4.275831445896958607E-31, -1.000000000000000000, -1.224646799147353207E-16 ) ) ;
#89 = CALENDAR_DATE ( 2021, 15, 11 ) ;
#90 = DATE_AND_TIME ( #164, #2 ) ;
#91 = APPLICATION_CONTEXT ( 'configuration controlled 3d designs of mechanical parts and assemblies' ) ;
#92 = FACE_OUTER_BOUND ( 'NONE', #5, .T. ) ;
#93 = PERSON_AND_ORGANIZATION_ROLE ( 'design_owner' ) ;
#94 = CARTESIAN_POINT ( 'NONE',  ( 1.228176774875465329E-14, -0.5681483474218578245, 3.517638090205027712 ) ) ;
#95 = EDGE_CURVE ( 'NONE', #222, #222, #180, .T. ) ;
#96 = APPROVAL_DATE_TIME ( #203, #3 ) ;
#97 = VERTEX_POINT ( 'NONE', #150 ) ;
#98 = DIRECTION ( 'NONE',  ( 3.491481338843133355E-15, -1.243677319851284845E-16, 1.000000000000000000 ) ) ;
#99 = DIRECTION ( 'NONE',  ( 3.491481338843133355E-15, -1.224646799147353207E-16, 1.000000000000000000 ) ) ;
#100 = APPROVAL_DATE_TIME ( #172, #8 ) ;
#101 = CC_DESIGN_DATE_AND_TIME_ASSIGNMENT ( #189, #7, ( #119 ) ) ;
#102 = PERSON ( 'UNSPECIFIED', 'UNSPECIFIED', 'UNSPECIFIED', ('UNSPECIFIED'), ('UNSPECIFIED'), ('UNSPECIFIED') ) ;
#103 = EDGE_LOOP ( 'NONE', ( #10 ) ) ;
#104 = CONICAL_SURFACE ( 'NONE', #175, 1.199999999999997957, 0.7853981633974450594 ) ;
#105 = DESIGN_CONTEXT ( 'detailed design', #212, 'design' ) ;
#106 = EDGE_LOOP ( 'NONE', ( #47 ) ) ;
#107 = CARTESIAN_POINT ( 'NONE',  ( 1.228176774875465329E-14, -4.374806712232980825E-16, 3.517638090205027712 ) ) ;
#108 = APPROVAL_ROLE ( '' ) ;
#109 = PERSON_AND_ORGANIZATION_ROLE ( 'creator' ) ;
#110 = AXIS2_PLACEMENT_3D ( 'NONE', #166, #13, #11 ) ;
#111 = DIRECTION ( 'NONE',  ( 0.0000000000000000000, -1.000000000000000000, 0.0000000000000000000 ) ) ;
#112 = FACE_OUTER_BOUND ( 'NONE', #33, .T. ) ;
#113 = CARTESIAN_POINT ( 'NONE',  ( -6.413803915257455362E-31, 2.249659577954771652E-32, -1.836986451539392583E-16 ) ) ;
#114 = CALENDAR_DATE ( 2021, 15, 11 ) ;
#115 = DATE_TIME_ROLE ( 'classification_date' ) ;
#116 = AXIS2_PLACEMENT_3D ( 'NONE', #177, #27, #239 ) ;
#117 = CARTESIAN_POINT ( 'NONE',  ( 1.316288464743861212E-13, 1.499999999999993117, 37.69999999999999574 ) ) ;
#118 = CC_DESIGN_APPROVAL ( #8, ( #29 ) ) ;
#119 = PRODUCT_DEFINITION ( 'UNKNOWN', '', #235, #105 ) ;
#120 = CARTESIAN_POINT ( 'NONE',  ( 1.047444401652940322E-14, 1.124819836996387869E-32, 3.000000000000000888 ) ) ;
#121 = EDGE_CURVE ( 'NONE', #129, #129, #190, .T. ) ;
#122 = CIRCLE ( 'NONE', #12, 0.5681483474218573804 ) ;
#123 = ORIENTED_EDGE ( 'NONE', *, *, #196, .F. ) ;
#124 = FACE_OUTER_BOUND ( 'NONE', #106, .T. ) ;
#125 = DIRECTION ( 'NONE',  ( 3.491481338843133355E-15, -1.243677319851284845E-16, 1.000000000000000000 ) ) ;
#126 = DIRECTION ( 'NONE',  ( 4.275831445896958607E-31, 1.000000000000000000, 1.224646799147353207E-16 ) ) ;
#127 = EDGE_CURVE ( 'NONE', #97, #97, #152, .T. ) ;
#128 = ORIENTED_EDGE ( 'NONE', *, *, #127, .T. ) ;
#129 = VERTEX_POINT ( 'NONE', #200 ) ;
#130 = ORIENTED_EDGE ( 'NONE', *, *, #213, .T. ) ;
#131 = AXIS2_PLACEMENT_3D ( 'NONE', #45, #215, #214 ) ;
#132 = DIRECTION ( 'NONE',  ( 3.491481338843133355E-15, -1.243677319851284845E-16, 1.000000000000000000 ) ) ;
#133 = CARTESIAN_POINT ( 'NONE',  ( 2.442415424384784411E-14, -1.499999999999996669, 6.995355802743753237 ) ) ;
#134 = COORDINATED_UNIVERSAL_TIME_OFFSET ( 1, 0, .AHEAD. ) ;
#135 = AXIS2_PLACEMENT_3D ( 'NONE', #38, #132, #181 ) ;
#136 = PERSON_AND_ORGANIZATION ( #102, #82 ) ;
#137 = FACE_OUTER_BOUND ( 'NONE', #221, .T. ) ;
#138 = LOCAL_TIME ( 15, 53, 33.00000000000000000, #41 ) ;
#139 = DIRECTION ( 'NONE',  ( -4.401287919143780654E-31, -1.000000000000000000, -1.243677319851284845E-16 ) ) ;
#140 = AXIS2_PLACEMENT_3D ( 'NONE', #226, #231, #167 ) ;
#141 = CYLINDRICAL_SURFACE ( 'NONE', #1, 0.4999999999999982792 ) ;
#142 = EDGE_LOOP ( 'NONE', ( #55 ) ) ;
#143 = APPROVAL_PERSON_ORGANIZATION ( #80, #3, #56 ) ;
#144 = DIRECTION ( 'NONE',  ( -4.342276153803204744E-31, -1.000000000000000000, -1.243677319851284599E-16 ) ) ;
#145 = CARTESIAN_POINT ( 'NONE',  ( 3.745453999408937822E-14, -1.334143230206869534E-15, 10.72740661031273213 ) ) ;
#146 = CARTESIAN_POINT ( 'NONE',  ( 1.326762908760390423E-13, -4.653657836759941941E-15, 38.00000000000000000 ) ) ;
#147 = FACE_OUTER_BOUND ( 'NONE', #225, .T. ) ;
#148 = DIRECTION ( 'NONE',  ( 3.491481338843133355E-15, -1.243677319851284845E-16, 1.000000000000000000 ) ) ;
#149 = CC_DESIGN_SECURITY_CLASSIFICATION ( #29, ( #235 ) ) ;
#150 = CARTESIAN_POINT ( 'NONE',  ( 1.047444401652940322E-14, -0.4999999999999985012, 3.000000000000000888 ) ) ;
#151 = VERTEX_POINT ( 'NONE', #117 ) ;
#152 = CIRCLE ( 'NONE', #201, 0.4999999999999981681 ) ;
#153 = ADVANCED_FACE ( 'NONE', ( #17, #137 ), #36, .F. ) ;
#154 = CC_DESIGN_PERSON_AND_ORGANIZATION_ASSIGNMENT ( #188, #93, ( #57 ) ) ;
#155 = CLOSED_SHELL ( 'NONE', ( #218, #229, #233, #14, #153, #205 ) ) ;
#156 = CARTESIAN_POINT ( 'NONE',  ( -6.413677916074933265E-31, 0.0000000000000000000, -1.836950363939232727E-16 ) ) ;
#157 = ADVANCED_FACE ( 'NONE', ( #25 ), #236, .T. ) ;
#158 =( NAMED_UNIT ( * ) PLANE_ANGLE_UNIT ( ) SI_UNIT ( $, .RADIAN. ) );
#159 = EDGE_LOOP ( 'NONE', ( #69 ) ) ;
#160 = DIRECTION ( 'NONE',  ( -3.491481338843133355E-15, 1.224646799147353207E-16, -1.000000000000000000 ) ) ;
#161 = PERSON_AND_ORGANIZATION ( #102, #82 ) ;
#162 = COORDINATED_UNIVERSAL_TIME_OFFSET ( 1, 0, .AHEAD. ) ;
#163 = EDGE_LOOP ( 'NONE', ( #21 ) ) ;
#164 = CALENDAR_DATE ( 2021, 15, 11 ) ;
#165 = DIRECTION ( 'NONE',  ( 3.491481338843133355E-15, -1.224646799147353207E-16, 1.000000000000000000 ) ) ;
#166 = CARTESIAN_POINT ( 'NONE',  ( 1.326762908760390423E-13, -4.653657836759941941E-15, 38.00000000000000000 ) ) ;
#167 = DIRECTION ( 'NONE',  ( 1.000000000000000000, 0.0000000000000000000, 0.0000000000000000000 ) ) ;
#168 = AXIS2_PLACEMENT_3D ( 'NONE', #113, #165, #88 ) ;
#169 = APPROVAL_STATUS ( 'not_yet_approved' ) ;
#170 = APPROVAL_DATE_TIME ( #63, #18 ) ;
#171 = CC_DESIGN_APPROVAL ( #18, ( #235 ) ) ;
#172 = DATE_AND_TIME ( #186, #67 ) ;
#173 = PRODUCT_DEFINITION_SHAPE ( 'NONE', 'NONE',  #119 ) ;
#174 = CC_DESIGN_PERSON_AND_ORGANIZATION_ASSIGNMENT ( #77, #60, ( #29 ) ) ;
#175 = AXIS2_PLACEMENT_3D ( 'NONE', #146, #187, #184 ) ;
#176 = PERSON_AND_ORGANIZATION_ROLE ( 'design_supplier' ) ;
#177 = CARTESIAN_POINT ( 'NONE',  ( 2.442415424384784411E-14, -8.699965356162484453E-16, 6.995355802743753237 ) ) ;
#178 = ORIENTED_EDGE ( 'NONE', *, *, #127, .F. ) ;
#179 = ORIENTED_EDGE ( 'NONE', *, *, #213, .F. ) ;
#180 = CIRCLE ( 'NONE', #110, 1.199999999999997957 ) ;
#181 = DIRECTION ( 'NONE',  ( 0.0000000000000000000, -1.000000000000000000, 0.0000000000000000000 ) ) ;
#182 = EDGE_LOOP ( 'NONE', ( #123 ) ) ;
#183 = APPROVAL_STATUS ( 'not_yet_approved' ) ;
#184 = DIRECTION ( 'NONE',  ( 0.0000000000000000000, 1.000000000000000000, 0.0000000000000000000 ) ) ;
#185 = PLANE ( 'NONE',  #168 ) ;
#186 = CALENDAR_DATE ( 2021, 15, 11 ) ;
#187 = DIRECTION ( 'NONE',  ( -3.491481338843133355E-15, 1.224646799147353207E-16, -1.000000000000000000 ) ) ;
#188 = PERSON_AND_ORGANIZATION ( #102, #82 ) ;
#189 = DATE_AND_TIME ( #114, #138 ) ;
#190 = CIRCLE ( 'NONE', #211, 0.4999999999999982792 ) ;
#191 = DIRECTION ( 'NONE',  ( 0.0000000000000000000, -1.000000000000000000, 0.0000000000000000000 ) ) ;
#192 = SHAPE_DEFINITION_REPRESENTATION ( #173, #87 ) ;
#193 = MANIFOLD_SOLID_BREP ( 'Corps-Déplacer/Copier1[2]', #15 ) ;
#194 = MANIFOLD_SOLID_BREP ( 'Corps-Déplacer/Copier1[1]', #155 ) ;
#195 = DIRECTION ( 'NONE',  ( 3.491481338843133355E-15, -1.243677319851284845E-16, 1.000000000000000000 ) ) ;
#196 = EDGE_CURVE ( 'NONE', #227, #227, #78, .T. ) ;
#197 = DIRECTION ( 'NONE',  ( 4.275831445896958607E-31, 1.000000000000000000, 1.224646799147353207E-16 ) ) ;
#198 = ORIENTED_EDGE ( 'NONE', *, *, #95, .F. ) ;
#199 = COORDINATED_UNIVERSAL_TIME_OFFSET ( 1, 0, .AHEAD. ) ;
#200 = CARTESIAN_POINT ( 'NONE',  ( -4.342276153803189855E-31, -0.4999999999999982792, -1.243677319851280654E-16 ) ) ;
#201 = AXIS2_PLACEMENT_3D ( 'NONE', #232, #208, #191 ) ;
#202 = FACE_BOUND ( 'NONE', #159, .T. ) ;
#203 = DATE_AND_TIME ( #89, #219 ) ;
#204 = COORDINATED_UNIVERSAL_TIME_OFFSET ( 1, 0, .AHEAD. ) ;
#205 = ADVANCED_FACE ( 'NONE', ( #243 ), #28, .F. ) ;
#206 = AXIS2_PLACEMENT_3D ( 'NONE', #53, #160, #197 ) ;
#207 =( GEOMETRIC_REPRESENTATION_CONTEXT ( 3 ) GLOBAL_UNCERTAINTY_ASSIGNED_CONTEXT ( ( #75 ) ) GLOBAL_UNIT_ASSIGNED_CONTEXT ( ( #24, #158, #84 ) ) REPRESENTATION_CONTEXT ( 'NONE', 'WORKASPACE' ) );
#208 = DIRECTION ( 'NONE',  ( 3.491481338843133355E-15, -1.243677319851284845E-16, 1.000000000000000000 ) ) ;
#209 = CALENDAR_DATE ( 2021, 15, 11 ) ;
#210 = ADVANCED_FACE ( 'NONE', ( #124, #241 ), #141, .T. ) ;
#211 = AXIS2_PLACEMENT_3D ( 'NONE', #76, #148, #79 ) ;
#212 = APPLICATION_CONTEXT ( 'configuration controlled 3d designs of mechanical parts and assemblies' ) ;
#213 = EDGE_CURVE ( 'NONE', #151, #151, #54, .T. ) ;
#214 = DIRECTION ( 'NONE',  ( 0.0000000000000000000, 1.000000000000000000, 0.0000000000000000000 ) ) ;
#215 = DIRECTION ( 'NONE',  ( -3.491481338843133355E-15, 1.224646799147353207E-16, -1.000000000000000000 ) ) ;
#216 = FACE_OUTER_BOUND ( 'NONE', #71, .T. ) ;
#217 = EDGE_LOOP ( 'NONE', ( #178 ) ) ;
#218 = ADVANCED_FACE ( 'NONE', ( #216, #70 ), #48, .T. ) ;
#219 = LOCAL_TIME ( 15, 53, 33.00000000000000000, #134 ) ;
#220 = DIRECTION ( 'NONE',  ( 0.0000000000000000000, -1.000000000000000000, 0.0000000000000000000 ) ) ;
#221 = EDGE_LOOP ( 'NONE', ( #242 ) ) ;
#222 = VERTEX_POINT ( 'NONE', #51 ) ;
#223 = EDGE_CURVE ( 'NONE', #230, #230, #72, .T. ) ;
#224 = FACE_OUTER_BOUND ( 'NONE', #30, .T. ) ;
#225 = EDGE_LOOP ( 'NONE', ( #198 ) ) ;
#226 = CARTESIAN_POINT ( 'NONE',  ( 0.0000000000000000000, 0.0000000000000000000, 0.0000000000000000000 ) ) ;
#227 = VERTEX_POINT ( 'NONE', #133 ) ;
#228 = APPLICATION_PROTOCOL_DEFINITION ( 'international standard', 'config_control_design', 1994, #212 ) ;
#229 = ADVANCED_FACE ( 'NONE', ( #112, #49 ), #104, .T. ) ;
#230 = VERTEX_POINT ( 'NONE', #16 ) ;
#231 = DIRECTION ( 'NONE',  ( 0.0000000000000000000, 0.0000000000000000000, 1.000000000000000000 ) ) ;
#232 = CARTESIAN_POINT ( 'NONE',  ( 1.047444401652940322E-14, -3.731031959553856014E-16, 3.000000000000000888 ) ) ;
#233 = ADVANCED_FACE ( 'NONE', ( #147 ), #31, .F. ) ;
#234 = PERSON_AND_ORGANIZATION_ROLE ( 'creator' ) ;
#235 = PRODUCT_DEFINITION_FORMATION_WITH_SPECIFIED_SOURCE ( 'ANY', '', #57, .NOT_KNOWN. ) ;
#236 = PLANE ( 'NONE',  #83 ) ;
#237 = CONICAL_SURFACE ( 'NONE', #42, 2.499999999999996447, 0.2617993877991428020 ) ;
#238 = APPROVAL_PERSON_ORGANIZATION ( #50, #18, #73 ) ;
#239 = DIRECTION ( 'NONE',  ( 0.0000000000000000000, -1.000000000000000000, 0.0000000000000000000 ) ) ;
#240 = CC_DESIGN_PERSON_AND_ORGANIZATION_ASSIGNMENT ( #81, #176, ( #235 ) ) ;
#241 = FACE_OUTER_BOUND ( 'NONE', #103, .T. ) ;
#242 = ORIENTED_EDGE ( 'NONE', *, *, #32, .F. ) ;
#243 = FACE_OUTER_BOUND ( 'NONE', #217, .T. ) ;
ENDSEC;
END-ISO-10303-21;
