ISO-10303-21;
HEADER;
FILE_DESCRIPTION (( 'STEP AP203' ),
    '1' );
FILE_NAME ('63692.step',
    '2021-11-10T06:36:31',
    ( '' ),
    ( '' ),
    'SwSTEP 2.0',
    'SolidWorks 2019',
    '' );
FILE_SCHEMA (( 'CONFIG_CONTROL_DESIGN' ));
ENDSEC;

DATA;
#1 = CARTESIAN_POINT ( 'NONE',  ( -1.786038389295302186E-30, 0.0000000000000000000, -5.115417256925931626E-16 ) ) ;
#2 = ADVANCED_FACE ( 'NONE', ( #140 ), #235, .F. ) ;
#3 = AXIS2_PLACEMENT_3D ( 'NONE', #83, #138, #217 ) ;
#4 = VERTEX_POINT ( 'NONE', #78 ) ;
#5 = CARTESIAN_POINT ( 'NONE',  ( 0.5499999999999997113, 0.0000000000000000000, -1.920314736363722557E-15 ) ) ;
#6 = EDGE_LOOP ( 'NONE', ( #66 ) ) ;
#7 = CC_DESIGN_PERSON_AND_ORGANIZATION_ASSIGNMENT ( #166, #43, ( #115 ) ) ;
#8 = EDGE_LOOP ( 'NONE', ( #197 ) ) ;
#9 = ORIENTED_EDGE ( 'NONE', *, *, #19, .F. ) ;
#10 = EDGE_CURVE ( 'NONE', #170, #170, #220, .T. ) ;
#11 = AXIS2_PLACEMENT_3D ( 'NONE', #1, #99, #222 ) ;
#12 = ORIENTED_EDGE ( 'NONE', *, *, #195, .T. ) ;
#13 = CC_DESIGN_APPROVAL ( #179, ( #174 ) ) ;
#14 = MECHANICAL_CONTEXT ( 'NONE', #21, 'mechanical' ) ;
#15 = DATE_AND_TIME ( #205, #233 ) ;
#16 = PRODUCT_RELATED_PRODUCT_CATEGORY ( 'detail', '', ( #115 ) ) ;
#17 = CARTESIAN_POINT ( 'NONE',  ( 1.326762908760390423E-13, -4.653657836759941941E-15, 38.00000000000000000 ) ) ;
#18 = SECURITY_CLASSIFICATION_LEVEL ( 'unclassified' ) ;
#19 = EDGE_CURVE ( 'NONE', #209, #209, #98, .T. ) ;
#20 = FACE_OUTER_BOUND ( 'NONE', #230, .T. ) ;
#21 = APPLICATION_CONTEXT ( 'configuration controlled 3d designs of mechanical parts and assemblies' ) ;
#22 = VERTEX_POINT ( 'NONE', #172 ) ;
#23 = CIRCLE ( 'NONE', #234, 0.5500000000000001554 ) ;
#24 = DATE_AND_TIME ( #214, #182 ) ;
#25 = VERTEX_POINT ( 'NONE', #134 ) ;
#26 = PERSON ( 'UNSPECIFIED', 'UNSPECIFIED', 'UNSPECIFIED', ('UNSPECIFIED'), ('UNSPECIFIED'), ('UNSPECIFIED') ) ;
#27 = CC_DESIGN_DATE_AND_TIME_ASSIGNMENT ( #15, #183, ( #174 ) ) ;
#28 = PLANE ( 'NONE',  #3 ) ;
#29 = DIRECTION ( 'NONE',  ( 3.491481338843133355E-15, -0.0000000000000000000, 1.000000000000000000 ) ) ;
#30 = EDGE_CURVE ( 'NONE', #22, #22, #23, .T. ) ;
#31 = DIRECTION ( 'NONE',  ( 3.491481338843133355E-15, -1.224646799147353207E-16, 1.000000000000000000 ) ) ;
#32 = ORIENTED_EDGE ( 'NONE', *, *, #181, .T. ) ;
#33 = AXIS2_PLACEMENT_3D ( 'NONE', #177, #121, #47 ) ;
#34 = EDGE_LOOP ( 'NONE', ( #136 ) ) ;
#35 = CIRCLE ( 'NONE', #171, 1.499999999999996225 ) ;
#36 =( NAMED_UNIT ( * ) PLANE_ANGLE_UNIT ( ) SI_UNIT ( $, .RADIAN. ) );
#37 = DIRECTION ( 'NONE',  ( 1.000000000000000000, 0.0000000000000000000, 0.0000000000000000000 ) ) ;
#38 = AXIS2_PLACEMENT_3D ( 'NONE', #17, #167, #116 ) ;
#39 = APPROVAL_ROLE ( '' ) ;
#40 = DIRECTION ( 'NONE',  ( 1.000000000000000000, 0.0000000000000000000, -3.507902842440447655E-15 ) ) ;
#41 = PERSON_AND_ORGANIZATION ( #26, #119 ) ;
#42 = CARTESIAN_POINT ( 'NONE',  ( 1.326762908760390423E-13, 8.998558695971069014E-33, 38.00000000000000000 ) ) ;
#43 = PERSON_AND_ORGANIZATION_ROLE ( 'design_owner' ) ;
#44 = DIRECTION ( 'NONE',  ( -4.275831445896958607E-31, -1.000000000000000000, -1.224646799147353207E-16 ) ) ;
#45 = CARTESIAN_POINT ( 'NONE',  ( 3.840629472727446691E-15, -1.590163186312077443E-16, 1.099999999999999867 ) ) ;
#46 = APPROVAL_DATE_TIME ( #24, #61 ) ;
#47 = DIRECTION ( 'NONE',  ( 0.0000000000000000000, 1.000000000000000000, 0.0000000000000000000 ) ) ;
#48 = CLOSED_SHELL ( 'NONE', ( #64, #107, #2 ) ) ;
#49 = FACE_OUTER_BOUND ( 'NONE', #57, .T. ) ;
#50 = CARTESIAN_POINT ( 'NONE',  ( 1.326762908760390423E-13, -4.653657836759941941E-15, 38.00000000000000000 ) ) ;
#51 = CC_DESIGN_DATE_AND_TIME_ASSIGNMENT ( #95, #150, ( #108 ) ) ;
#52 = ADVANCED_FACE ( 'NONE', ( #236, #193 ), #126, .T. ) ;
#53 = COORDINATED_UNIVERSAL_TIME_OFFSET ( 1, 0, .AHEAD. ) ;
#54 = CYLINDRICAL_SURFACE ( 'NONE', #11, 0.5499999999999999334 ) ;
#55 = CARTESIAN_POINT ( 'NONE',  ( 0.0000000000000000000, 0.0000000000000000000, 0.0000000000000000000 ) ) ;
#56 = DIRECTION ( 'NONE',  ( 1.000000000000000000, 0.0000000000000000000, -3.469446951953622866E-15 ) ) ;
#57 = EDGE_LOOP ( 'NONE', ( #62 ) ) ;
#58 = APPROVAL_STATUS ( 'not_yet_approved' ) ;
#59 = FACE_OUTER_BOUND ( 'NONE', #81, .T. ) ;
#60 = VERTEX_POINT ( 'NONE', #5 ) ;
#61 = APPROVAL ( #58, 'UNSPECIFIED' ) ;
#62 = ORIENTED_EDGE ( 'NONE', *, *, #10, .T. ) ;
#63 = FACE_OUTER_BOUND ( 'NONE', #137, .T. ) ;
#64 = ADVANCED_FACE ( 'NONE', ( #231 ), #28, .T. ) ;
#65 =( GEOMETRIC_REPRESENTATION_CONTEXT ( 3 ) GLOBAL_UNCERTAINTY_ASSIGNED_CONTEXT ( ( #221 ) ) GLOBAL_UNIT_ASSIGNED_CONTEXT ( ( #229, #36, #72 ) ) REPRESENTATION_CONTEXT ( 'NONE', 'WORKASPACE' ) );
#66 = ORIENTED_EDGE ( 'NONE', *, *, #181, .F. ) ;
#67 = AXIS2_PLACEMENT_3D ( 'NONE', #158, #68, #232 ) ;
#68 = DIRECTION ( 'NONE',  ( 3.491481338843133355E-15, -0.0000000000000000000, 1.000000000000000000 ) ) ;
#69 = DIRECTION ( 'NONE',  ( 0.0000000000000000000, 1.000000000000000000, 0.0000000000000000000 ) ) ;
#70 = LOCAL_TIME ( 7, 36, 31.00000000000000000, #112 ) ;
#71 = ADVANCED_FACE ( 'NONE', ( #49, #63 ), #87, .F. ) ;
#72 =( NAMED_UNIT ( * ) SI_UNIT ( $, .STERADIAN. ) SOLID_ANGLE_UNIT ( ) );
#73 = COORDINATED_UNIVERSAL_TIME_OFFSET ( 1, 0, .AHEAD. ) ;
#74 = DIRECTION ( 'NONE',  ( 3.491481338843133355E-15, -0.0000000000000000000, 1.000000000000000000 ) ) ;
#75 = CALENDAR_DATE ( 2021, 10, 11 ) ;
#76 = AXIS2_PLACEMENT_3D ( 'NONE', #50, #105, #69 ) ;
#77 = FACE_OUTER_BOUND ( 'NONE', #153, .T. ) ;
#78 = CARTESIAN_POINT ( 'NONE',  ( 0.6181483474218657514, 0.0000000000000000000, 1.617638090205026025 ) ) ;
#79 = VERTEX_POINT ( 'NONE', #211 ) ;
#80 = PRODUCT_DEFINITION_FORMATION_WITH_SPECIFIED_SOURCE ( 'ANY', '', #115, .NOT_KNOWN. ) ;
#81 = EDGE_LOOP ( 'NONE', ( #86 ) ) ;
#82 = APPROVAL_ROLE ( '' ) ;
#83 = CARTESIAN_POINT ( 'NONE',  ( 3.840629472727446691E-15, -1.590163186312077443E-16, 1.099999999999999867 ) ) ;
#84 = ORIENTED_EDGE ( 'NONE', *, *, #131, .T. ) ;
#85 = PRODUCT_DEFINITION_SHAPE ( 'NONE', 'NONE',  #174 ) ;
#86 = ORIENTED_EDGE ( 'NONE', *, *, #10, .F. ) ;
#87 = TOROIDAL_SURFACE ( 'NONE', #164, 2.550000000000000266, 2.000000000000000000 ) ;
#88 = ORIENTED_EDGE ( 'NONE', *, *, #139, .F. ) ;
#89 = APPROVAL_STATUS ( 'not_yet_approved' ) ;
#90 = APPROVAL_DATE_TIME ( #184, #143 ) ;
#91 = AXIS2_PLACEMENT_3D ( 'NONE', #206, #186, #152 ) ;
#92 = DIRECTION ( 'NONE',  ( 0.0000000000000000000, 0.0000000000000000000, 1.000000000000000000 ) ) ;
#93 = FACE_BOUND ( 'NONE', #175, .T. ) ;
#94 = CC_DESIGN_PERSON_AND_ORGANIZATION_ASSIGNMENT ( #204, #127, ( #174 ) ) ;
#95 = DATE_AND_TIME ( #187, #70 ) ;
#96 = PLANE ( 'NONE',  #180 ) ;
#97 = LOCAL_TIME ( 7, 36, 31.00000000000000000, #238 ) ;
#98 = CIRCLE ( 'NONE', #33, 1.499999999999998446 ) ;
#99 = DIRECTION ( 'NONE',  ( 3.491481338843133355E-15, -0.0000000000000000000, 1.000000000000000000 ) ) ;
#100 = DIRECTION ( 'NONE',  ( 3.491481338843133355E-15, -0.0000000000000000000, 1.000000000000000000 ) ) ;
#101 = SHAPE_DEFINITION_REPRESENTATION ( #85, #141 ) ;
#102 = EDGE_LOOP ( 'NONE', ( #155 ) ) ;
#103 = DIRECTION ( 'NONE',  ( 1.000000000000000000, 0.0000000000000000000, -3.491481338843133750E-15 ) ) ;
#104 = CARTESIAN_POINT ( 'NONE',  ( -6.413803915257457113E-31, 2.249659577954772199E-32, -1.836986451539393076E-16 ) ) ;
#105 = DIRECTION ( 'NONE',  ( -3.491481338843133355E-15, 1.224646799147353207E-16, -1.000000000000000000 ) ) ;
#106 = CC_DESIGN_PERSON_AND_ORGANIZATION_ASSIGNMENT ( #207, #165, ( #80 ) ) ;
#107 = ADVANCED_FACE ( 'NONE', ( #196, #173 ), #54, .T. ) ;
#108 = SECURITY_CLASSIFICATION ( '', '', #18 ) ;
#109 = AXIS2_PLACEMENT_3D ( 'NONE', #104, #31, #213 ) ;
#110 = APPROVAL_ROLE ( '' ) ;
#111 = CYLINDRICAL_SURFACE ( 'NONE', #91, 1.499999999999996447 ) ;
#112 = COORDINATED_UNIVERSAL_TIME_OFFSET ( 1, 0, .AHEAD. ) ;
#113 = DIRECTION ( 'NONE',  ( 4.275831445896958607E-31, 1.000000000000000000, 1.224646799147353207E-16 ) ) ;
#114 = CALENDAR_DATE ( 2021, 10, 11 ) ;
#115 = PRODUCT ( '63692', '63692', '', ( #14 ) ) ;
#116 = DIRECTION ( 'NONE',  ( 0.0000000000000000000, 1.000000000000000000, 0.0000000000000000000 ) ) ;
#117 = AXIS2_PLACEMENT_3D ( 'NONE', #145, #224, #40 ) ;
#118 = ORIENTED_EDGE ( 'NONE', *, *, #131, .F. ) ;
#119 = ORGANIZATION ( 'UNSPECIFIED', 'UNSPECIFIED', '' ) ;
#120 = COORDINATED_UNIVERSAL_TIME_OFFSET ( 1, 0, .AHEAD. ) ;
#121 = DIRECTION ( 'NONE',  ( -3.491481338843133355E-15, 1.224646799147353207E-16, -1.000000000000000000 ) ) ;
#122 = CLOSED_SHELL ( 'NONE', ( #149, #52, #227, #71, #202, #156 ) ) ;
#123 = CARTESIAN_POINT ( 'NONE',  ( 3.840629472727445113E-15, 0.0000000000000000000, 1.099999999999999423 ) ) ;
#124 = AXIS2_PLACEMENT_3D ( 'NONE', #45, #208, #44 ) ;
#125 = CC_DESIGN_SECURITY_CLASSIFICATION ( #108, ( #80 ) ) ;
#126 = CONICAL_SURFACE ( 'NONE', #76, 1.199999999999998845, 0.7853981633974450594 ) ;
#127 = PERSON_AND_ORGANIZATION_ROLE ( 'creator' ) ;
#128 = CC_DESIGN_PERSON_AND_ORGANIZATION_ASSIGNMENT ( #147, #223, ( #80 ) ) ;
#129 = DIRECTION ( 'NONE',  ( 3.491481338843133355E-15, -0.0000000000000000000, 1.000000000000000000 ) ) ;
#130 = FACE_OUTER_BOUND ( 'NONE', #34, .T. ) ;
#131 = EDGE_CURVE ( 'NONE', #4, #4, #199, .T. ) ;
#132 = PERSON_AND_ORGANIZATION ( #26, #119 ) ;
#133 = DIRECTION ( 'NONE',  ( -3.491481338843133355E-15, 1.224646799147353207E-16, -1.000000000000000000 ) ) ;
#134 = CARTESIAN_POINT ( 'NONE',  ( 1.500000000000013323, 0.0000000000000000000, 4.908753262365291192 ) ) ;
#135 = CARTESIAN_POINT ( 'NONE',  ( 1.713882041253378279E-14, 0.0000000000000000000, 4.908753262365296521 ) ) ;
#136 = ORIENTED_EDGE ( 'NONE', *, *, #195, .F. ) ;
#137 = EDGE_LOOP ( 'NONE', ( #118 ) ) ;
#138 = DIRECTION ( 'NONE',  ( 3.491481338843133355E-15, -1.224646799147353207E-16, 1.000000000000000000 ) ) ;
#139 = EDGE_CURVE ( 'NONE', #25, #25, #35, .T. ) ;
#140 = FACE_OUTER_BOUND ( 'NONE', #6, .T. ) ;
#141 = ADVANCED_BREP_SHAPE_REPRESENTATION ( '63692', ( #162, #160, #201 ), #65 ) ;
#142 = APPROVAL_DATE_TIME ( #189, #179 ) ;
#143 = APPROVAL ( #241, 'UNSPECIFIED' ) ;
#144 = PERSON_AND_ORGANIZATION ( #26, #119 ) ;
#145 = CARTESIAN_POINT ( 'NONE',  ( 5.647953204952700705E-15, 0.0000000000000000000, 1.617638090205028245 ) ) ;
#146 = AXIS2_PLACEMENT_3D ( 'NONE', #242, #74, #56 ) ;
#147 = PERSON_AND_ORGANIZATION ( #26, #119 ) ;
#148 = DIRECTION ( 'NONE',  ( 1.000000000000000000, 0.0000000000000000000, -3.469446951953622866E-15 ) ) ;
#149 = ADVANCED_FACE ( 'NONE', ( #20, #77 ), #111, .T. ) ;
#150 = DATE_TIME_ROLE ( 'classification_date' ) ;
#151 = CARTESIAN_POINT ( 'NONE',  ( 0.5500000000000039302, 0.0000000000000000000, 1.099999999999997202 ) ) ;
#152 = DIRECTION ( 'NONE',  ( 4.275831445896958607E-31, 1.000000000000000000, 1.224646799147352961E-16 ) ) ;
#153 = EDGE_LOOP ( 'NONE', ( #157 ) ) ;
#154 = CARTESIAN_POINT ( 'NONE',  ( 3.840629472727444324E-15, 0.0000000000000000000, 1.099999999999999201 ) ) ;
#155 = ORIENTED_EDGE ( 'NONE', *, *, #30, .F. ) ;
#156 = ADVANCED_FACE ( 'NONE', ( #59 ), #228, .F. ) ;
#157 = ORIENTED_EDGE ( 'NONE', *, *, #139, .T. ) ;
#158 = CARTESIAN_POINT ( 'NONE',  ( 3.840629472727444324E-15, 0.0000000000000000000, 1.099999999999999201 ) ) ;
#159 = CONICAL_SURFACE ( 'NONE', #146, 1.499999999999996225, 0.2617993877991428575 ) ;
#160 = MANIFOLD_SOLID_BREP ( 'Corps-Déplacer/Copier1[2]', #48 ) ;
#161 = EDGE_LOOP ( 'NONE', ( #88 ) ) ;
#162 = MANIFOLD_SOLID_BREP ( 'Corps-Déplacer/Copier1[1]', #122 ) ;
#163 = APPROVAL_PERSON_ORGANIZATION ( #144, #143, #110 ) ;
#164 = AXIS2_PLACEMENT_3D ( 'NONE', #123, #29, #103 ) ;
#165 = PERSON_AND_ORGANIZATION_ROLE ( 'design_supplier' ) ;
#166 = PERSON_AND_ORGANIZATION ( #26, #119 ) ;
#167 = DIRECTION ( 'NONE',  ( -3.491481338843133355E-15, 1.224646799147353207E-16, -1.000000000000000000 ) ) ;
#168 = APPLICATION_PROTOCOL_DEFINITION ( 'international standard', 'config_control_design', 1994, #21 ) ;
#169 = CC_DESIGN_APPROVAL ( #143, ( #80 ) ) ;
#170 = VERTEX_POINT ( 'NONE', #151 ) ;
#171 = AXIS2_PLACEMENT_3D ( 'NONE', #135, #129, #148 ) ;
#172 = CARTESIAN_POINT ( 'NONE',  ( 0.5500000000000039302, 0.0000000000000000000, 1.099999999999997202 ) ) ;
#173 = FACE_OUTER_BOUND ( 'NONE', #102, .T. ) ;
#174 = PRODUCT_DEFINITION ( 'UNKNOWN', '', #80, #185 ) ;
#175 = EDGE_LOOP ( 'NONE', ( #84 ) ) ;
#176 = ORIENTED_EDGE ( 'NONE', *, *, #19, .T. ) ;
#177 = CARTESIAN_POINT ( 'NONE',  ( 1.316288464743861212E-13, -4.616918432785521081E-15, 37.69999999999999574 ) ) ;
#178 = EDGE_LOOP ( 'NONE', ( #12 ) ) ;
#179 = APPROVAL ( #89, 'UNSPECIFIED' ) ;
#180 = AXIS2_PLACEMENT_3D ( 'NONE', #42, #133, #113 ) ;
#181 = EDGE_CURVE ( 'NONE', #60, #60, #203, .T. ) ;
#182 = LOCAL_TIME ( 7, 36, 31.00000000000000000, #120 ) ;
#183 = DATE_TIME_ROLE ( 'creation_date' ) ;
#184 = DATE_AND_TIME ( #75, #210 ) ;
#185 = DESIGN_CONTEXT ( 'detailed design', #191, 'design' ) ;
#186 = DIRECTION ( 'NONE',  ( -3.491481338843133355E-15, 1.224646799147353207E-16, -1.000000000000000000 ) ) ;
#187 = CALENDAR_DATE ( 2021, 10, 11 ) ;
#188 = CARTESIAN_POINT ( 'NONE',  ( 0.0000000000000000000, 0.0000000000000000000, 0.0000000000000000000 ) ) ;
#189 = DATE_AND_TIME ( #114, #97 ) ;
#190 = CARTESIAN_POINT ( 'NONE',  ( 1.316288464743861212E-13, 1.499999999999994005, 37.69999999999999574 ) ) ;
#191 = APPLICATION_CONTEXT ( 'configuration controlled 3d designs of mechanical parts and assemblies' ) ;
#192 = FACE_OUTER_BOUND ( 'NONE', #161, .T. ) ;
#193 = FACE_BOUND ( 'NONE', #178, .T. ) ;
#194 = CC_DESIGN_APPROVAL ( #61, ( #108 ) ) ;
#195 = EDGE_CURVE ( 'NONE', #79, #79, #239, .T. ) ;
#196 = FACE_OUTER_BOUND ( 'NONE', #215, .T. ) ;
#197 = ORIENTED_EDGE ( 'NONE', *, *, #30, .T. ) ;
#198 = DIRECTION ( 'NONE',  ( 3.491481338843133355E-15, -0.0000000000000000000, 1.000000000000000000 ) ) ;
#199 = CIRCLE ( 'NONE', #117, 0.6181483474218602003 ) ;
#200 = CC_DESIGN_PERSON_AND_ORGANIZATION_ASSIGNMENT ( #41, #240, ( #108 ) ) ;
#201 = AXIS2_PLACEMENT_3D ( 'NONE', #55, #92, #37 ) ;
#202 = ADVANCED_FACE ( 'NONE', ( #93, #192 ), #159, .T. ) ;
#203 = CIRCLE ( 'NONE', #212, 0.5499999999999997113 ) ;
#204 = PERSON_AND_ORGANIZATION ( #26, #119 ) ;
#205 = CALENDAR_DATE ( 2021, 10, 11 ) ;
#206 = CARTESIAN_POINT ( 'NONE',  ( 0.0000000000000000000, 0.0000000000000000000, 0.0000000000000000000 ) ) ;
#207 = PERSON_AND_ORGANIZATION ( #26, #119 ) ;
#208 = DIRECTION ( 'NONE',  ( 3.491481338843133355E-15, -1.224646799147353207E-16, 1.000000000000000000 ) ) ;
#209 = VERTEX_POINT ( 'NONE', #190 ) ;
#210 = LOCAL_TIME ( 7, 36, 31.00000000000000000, #73 ) ;
#211 = CARTESIAN_POINT ( 'NONE',  ( 1.326762908760390423E-13, 1.199999999999994182, 38.00000000000000000 ) ) ;
#212 = AXIS2_PLACEMENT_3D ( 'NONE', #188, #100, #226 ) ;
#213 = DIRECTION ( 'NONE',  ( -4.275831445896958607E-31, -1.000000000000000000, -1.224646799147353207E-16 ) ) ;
#214 = CALENDAR_DATE ( 2021, 10, 11 ) ;
#215 = EDGE_LOOP ( 'NONE', ( #32 ) ) ;
#216 = APPROVAL_PERSON_ORGANIZATION ( #132, #179, #39 ) ;
#217 = DIRECTION ( 'NONE',  ( -4.275831445896958607E-31, -1.000000000000000000, -1.224646799147353207E-16 ) ) ;
#218 = DIRECTION ( 'NONE',  ( 1.000000000000000000, 0.0000000000000000000, -3.548298019043467945E-15 ) ) ;
#219 = EDGE_LOOP ( 'NONE', ( #9 ) ) ;
#220 = CIRCLE ( 'NONE', #67, 0.5500000000000001554 ) ;
#221 = UNCERTAINTY_MEASURE_WITH_UNIT (LENGTH_MEASURE( 1.000000000000000082E-05 ), #229, 'distance_accuracy_value', 'NONE');
#222 = DIRECTION ( 'NONE',  ( 1.000000000000000000, 0.0000000000000000000, -3.491481338843133750E-15 ) ) ;
#223 = PERSON_AND_ORGANIZATION_ROLE ( 'creator' ) ;
#224 = DIRECTION ( 'NONE',  ( 3.491481338843133355E-15, -0.0000000000000000000, 1.000000000000000000 ) ) ;
#225 = PERSON_AND_ORGANIZATION ( #26, #119 ) ;
#226 = DIRECTION ( 'NONE',  ( 1.000000000000000000, 0.0000000000000000000, -3.491481338843133750E-15 ) ) ;
#227 = ADVANCED_FACE ( 'NONE', ( #130 ), #96, .F. ) ;
#228 = PLANE ( 'NONE',  #124 ) ;
#229 =( LENGTH_UNIT ( ) NAMED_UNIT ( * ) SI_UNIT ( .MILLI., .METRE. ) );
#230 = EDGE_LOOP ( 'NONE', ( #176 ) ) ;
#231 = FACE_OUTER_BOUND ( 'NONE', #8, .T. ) ;
#232 = DIRECTION ( 'NONE',  ( 1.000000000000000000, 0.0000000000000000000, -3.548298019043467945E-15 ) ) ;
#233 = LOCAL_TIME ( 7, 36, 31.00000000000000000, #53 ) ;
#234 = AXIS2_PLACEMENT_3D ( 'NONE', #154, #198, #218 ) ;
#235 = PLANE ( 'NONE',  #109 ) ;
#236 = FACE_OUTER_BOUND ( 'NONE', #219, .T. ) ;
#237 = APPROVAL_PERSON_ORGANIZATION ( #225, #61, #82 ) ;
#238 = COORDINATED_UNIVERSAL_TIME_OFFSET ( 1, 0, .AHEAD. ) ;
#239 = CIRCLE ( 'NONE', #38, 1.199999999999998845 ) ;
#240 = PERSON_AND_ORGANIZATION_ROLE ( 'classification_officer' ) ;
#241 = APPROVAL_STATUS ( 'not_yet_approved' ) ;
#242 = CARTESIAN_POINT ( 'NONE',  ( 1.713882041253378279E-14, 0.0000000000000000000, 4.908753262365296521 ) ) ;
#243 = APPLICATION_PROTOCOL_DEFINITION ( 'international standard', 'config_control_design', 1994, #191 ) ;
ENDSEC;
END-ISO-10303-21;
