ISO-10303-21;
HEADER;
FILE_DESCRIPTION (( 'STEP AP203' ),
    '1' );
FILE_NAME ('63691.step',
    '2021-11-10T06:36:30',
    ( '' ),
    ( '' ),
    'SwSTEP 2.0',
    'SolidWorks 2019',
    '' );
FILE_SCHEMA (( 'CONFIG_CONTROL_DESIGN' ));
ENDSEC;

DATA;
#1 = FACE_OUTER_BOUND ( 'NONE', #148, .T. ) ;
#2 = CARTESIAN_POINT ( 'NONE',  ( 1.326762908760390423E-13, -4.653657836759941941E-15, 38.00000000000000000 ) ) ;
#3 = LOCAL_TIME ( 7, 36, 30.00000000000000000, #160 ) ;
#4 = CC_DESIGN_SECURITY_CLASSIFICATION ( #238, ( #120 ) ) ;
#5 = DIRECTION ( 'NONE',  ( -3.491481338843133355E-15, 1.224646799147353207E-16, -1.000000000000000000 ) ) ;
#6 = CIRCLE ( 'NONE', #43, 1.199999999999998845 ) ;
#7 = APPROVAL_ROLE ( '' ) ;
#8 = DATE_AND_TIME ( #91, #230 ) ;
#9 = CC_DESIGN_PERSON_AND_ORGANIZATION_ASSIGNMENT ( #76, #118, ( #120 ) ) ;
#10 = ADVANCED_FACE ( 'NONE', ( #216, #217 ), #151, .F. ) ;
#11 = DIRECTION ( 'NONE',  ( 1.000000000000000000, 0.0000000000000000000, -3.491481338843133355E-15 ) ) ;
#12 = ORIENTED_EDGE ( 'NONE', *, *, #75, .F. ) ;
#13 = VERTEX_POINT ( 'NONE', #49 ) ;
#14 = ORIENTED_EDGE ( 'NONE', *, *, #75, .T. ) ;
#15 = DIRECTION ( 'NONE',  ( 3.491481338843133355E-15, -1.224646799147353207E-16, 1.000000000000000000 ) ) ;
#16 = COORDINATED_UNIVERSAL_TIME_OFFSET ( 1, 0, .AHEAD. ) ;
#17 = CARTESIAN_POINT ( 'NONE',  ( 1.326762908760390423E-13, -4.653657836759941941E-15, 38.00000000000000000 ) ) ;
#18 = CC_DESIGN_APPROVAL ( #197, ( #110 ) ) ;
#19 = CALENDAR_DATE ( 2021, 10, 11 ) ;
#20 = FACE_OUTER_BOUND ( 'NONE', #80, .T. ) ;
#21 = PRODUCT_DEFINITION_SHAPE ( 'NONE', 'NONE',  #110 ) ;
#22 = CARTESIAN_POINT ( 'NONE',  ( 3.666055405785288445E-15, 0.0000000000000000000, 1.049999999999999600 ) ) ;
#23 = DIRECTION ( 'NONE',  ( -3.491481338843133355E-15, 1.224646799147353207E-16, -1.000000000000000000 ) ) ;
#24 = AXIS2_PLACEMENT_3D ( 'NONE', #155, #61, #124 ) ;
#25 = CC_DESIGN_PERSON_AND_ORGANIZATION_ASSIGNMENT ( #39, #189, ( #238 ) ) ;
#26 = EDGE_CURVE ( 'NONE', #13, #13, #47, .T. ) ;
#27 = CIRCLE ( 'NONE', #34, 1.499999999999996225 ) ;
#28 = DATE_AND_TIME ( #48, #3 ) ;
#29 = AXIS2_PLACEMENT_3D ( 'NONE', #17, #44, #225 ) ;
#30 = VERTEX_POINT ( 'NONE', #184 ) ;
#31 =( NAMED_UNIT ( * ) PLANE_ANGLE_UNIT ( ) SI_UNIT ( $, .RADIAN. ) );
#32 = CC_DESIGN_PERSON_AND_ORGANIZATION_ASSIGNMENT ( #196, #33, ( #63 ) ) ;
#33 = PERSON_AND_ORGANIZATION_ROLE ( 'design_owner' ) ;
#34 = AXIS2_PLACEMENT_3D ( 'NONE', #159, #132, #203 ) ;
#35 = APPROVAL_PERSON_ORGANIZATION ( #71, #197, #7 ) ;
#36 = EDGE_LOOP ( 'NONE', ( #72 ) ) ;
#37 = EDGE_LOOP ( 'NONE', ( #220 ) ) ;
#38 = ORIENTED_EDGE ( 'NONE', *, *, #239, .T. ) ;
#39 = PERSON_AND_ORGANIZATION ( #107, #212 ) ;
#40 = DIRECTION ( 'NONE',  ( 0.0000000000000000000, 1.000000000000000000, 0.0000000000000000000 ) ) ;
#41 = DIRECTION ( 'NONE',  ( -4.275831445896958607E-31, -1.000000000000000000, -1.224646799147353207E-16 ) ) ;
#42 = DIRECTION ( 'NONE',  ( 1.000000000000000000, 0.0000000000000000000, -3.469446951953622866E-15 ) ) ;
#43 = AXIS2_PLACEMENT_3D ( 'NONE', #2, #5, #138 ) ;
#44 = DIRECTION ( 'NONE',  ( -3.491481338843133355E-15, 1.224646799147353207E-16, -1.000000000000000000 ) ) ;
#45 = ADVANCED_FACE ( 'NONE', ( #235 ), #98, .F. ) ;
#46 = CYLINDRICAL_SURFACE ( 'NONE', #173, 1.499999999999996447 ) ;
#47 = CIRCLE ( 'NONE', #131, 0.5249999999999999112 ) ;
#48 = CALENDAR_DATE ( 2021, 10, 11 ) ;
#49 = CARTESIAN_POINT ( 'NONE',  ( 0.5249999999999999112, 0.0000000000000000000, -1.833027702892644617E-15 ) ) ;
#50 =( LENGTH_UNIT ( ) NAMED_UNIT ( * ) SI_UNIT ( .MILLI., .METRE. ) );
#51 = CARTESIAN_POINT ( 'NONE',  ( 0.0000000000000000000, 0.0000000000000000000, 0.0000000000000000000 ) ) ;
#52 = CARTESIAN_POINT ( 'NONE',  ( -6.413803915257457113E-31, 2.249659577954772199E-32, -1.836986451539393076E-16 ) ) ;
#53 = VERTEX_POINT ( 'NONE', #68 ) ;
#54 = CARTESIAN_POINT ( 'NONE',  ( 3.666055405785289234E-15, 0.0000000000000000000, 1.049999999999999822 ) ) ;
#55 = SHAPE_DEFINITION_REPRESENTATION ( #21, #99 ) ;
#56 = ORIENTED_EDGE ( 'NONE', *, *, #105, .T. ) ;
#57 = ORIENTED_EDGE ( 'NONE', *, *, #89, .T. ) ;
#58 = EDGE_LOOP ( 'NONE', ( #57 ) ) ;
#59 = FACE_OUTER_BOUND ( 'NONE', #171, .T. ) ;
#60 = DIRECTION ( 'NONE',  ( 1.000000000000000000, 0.0000000000000000000, -3.655753833583208568E-15 ) ) ;
#61 = DIRECTION ( 'NONE',  ( 3.491481338843133355E-15, -0.0000000000000000000, 1.000000000000000000 ) ) ;
#62 = CC_DESIGN_PERSON_AND_ORGANIZATION_ASSIGNMENT ( #108, #142, ( #120 ) ) ;
#63 = PRODUCT ( '63691', '63691', '', ( #234 ) ) ;
#64 = DIRECTION ( 'NONE',  ( 4.275831445896958607E-31, 1.000000000000000000, 1.224646799147353207E-16 ) ) ;
#65 = AXIS2_PLACEMENT_3D ( 'NONE', #205, #208, #42 ) ;
#66 = PERSON_AND_ORGANIZATION ( #107, #212 ) ;
#67 = APPROVAL_DATE_TIME ( #28, #78 ) ;
#68 = CARTESIAN_POINT ( 'NONE',  ( 1.316288464743861212E-13, 1.499999999999994005, 37.69999999999999574 ) ) ;
#69 = COORDINATED_UNIVERSAL_TIME_OFFSET ( 1, 0, .AHEAD. ) ;
#70 = EDGE_LOOP ( 'NONE', ( #77 ) ) ;
#71 = PERSON_AND_ORGANIZATION ( #107, #212 ) ;
#72 = ORIENTED_EDGE ( 'NONE', *, *, #92, .T. ) ;
#73 = MANIFOLD_SOLID_BREP ( 'Corps-Déplacer/Copier1[2]', #83 ) ;
#74 = APPROVAL_DATE_TIME ( #129, #180 ) ;
#75 = EDGE_CURVE ( 'NONE', #144, #144, #6, .T. ) ;
#76 = PERSON_AND_ORGANIZATION ( #107, #212 ) ;
#77 = ORIENTED_EDGE ( 'NONE', *, *, #26, .F. ) ;
#78 = APPROVAL ( #140, 'UNSPECIFIED' ) ;
#79 = SECURITY_CLASSIFICATION_LEVEL ( 'unclassified' ) ;
#80 = EDGE_LOOP ( 'NONE', ( #186 ) ) ;
#81 = MANIFOLD_SOLID_BREP ( 'Corps-Déplacer/Copier1[1]', #221 ) ;
#82 = CARTESIAN_POINT ( 'NONE',  ( 3.666055405785290812E-15, -1.517883041479710645E-16, 1.050000000000000044 ) ) ;
#83 = CLOSED_SHELL ( 'NONE', ( #145, #143, #45 ) ) ;
#84 = PLANE ( 'NONE',  #177 ) ;
#85 = CC_DESIGN_DATE_AND_TIME_ASSIGNMENT ( #199, #166, ( #110 ) ) ;
#86 = CC_DESIGN_PERSON_AND_ORGANIZATION_ASSIGNMENT ( #147, #146, ( #110 ) ) ;
#87 = FACE_OUTER_BOUND ( 'NONE', #187, .T. ) ;
#88 = CARTESIAN_POINT ( 'NONE',  ( 1.316288464743861212E-13, -4.616918432785521081E-15, 37.69999999999999574 ) ) ;
#89 = EDGE_CURVE ( 'NONE', #30, #30, #119, .T. ) ;
#90 = DIRECTION ( 'NONE',  ( 3.491481338843133355E-15, -1.224646799147353207E-16, 1.000000000000000000 ) ) ;
#91 = CALENDAR_DATE ( 2021, 10, 11 ) ;
#92 = EDGE_CURVE ( 'NONE', #53, #53, #206, .T. ) ;
#93 = DIRECTION ( 'NONE',  ( 0.0000000000000000000, 0.0000000000000000000, 1.000000000000000000 ) ) ;
#94 = CIRCLE ( 'NONE', #126, 0.5250000000000002442 ) ;
#95 = CARTESIAN_POINT ( 'NONE',  ( 0.5250000000000040190, 0.0000000000000000000, 1.049999999999997824 ) ) ;
#96 = ORIENTED_EDGE ( 'NONE', *, *, #105, .F. ) ;
#97 =( NAMED_UNIT ( * ) SI_UNIT ( $, .STERADIAN. ) SOLID_ANGLE_UNIT ( ) );
#98 = PLANE ( 'NONE',  #182 ) ;
#99 = ADVANCED_BREP_SHAPE_REPRESENTATION ( '63691', ( #81, #73, #158 ), #100 ) ;
#100 =( GEOMETRIC_REPRESENTATION_CONTEXT ( 3 ) GLOBAL_UNCERTAINTY_ASSIGNED_CONTEXT ( ( #141 ) ) GLOBAL_UNIT_ASSIGNED_CONTEXT ( ( #50, #31, #97 ) ) REPRESENTATION_CONTEXT ( 'NONE', 'WORKASPACE' ) );
#101 = PERSON_AND_ORGANIZATION ( #107, #212 ) ;
#102 = DIRECTION ( 'NONE',  ( 3.491481338843133355E-15, -0.0000000000000000000, 1.000000000000000000 ) ) ;
#103 = AXIS2_PLACEMENT_3D ( 'NONE', #122, #90, #224 ) ;
#104 = FACE_BOUND ( 'NONE', #128, .T. ) ;
#105 = EDGE_CURVE ( 'NONE', #214, #214, #169, .T. ) ;
#106 = CARTESIAN_POINT ( 'NONE',  ( 0.0000000000000000000, 0.0000000000000000000, 0.0000000000000000000 ) ) ;
#107 = PERSON ( 'UNSPECIFIED', 'UNSPECIFIED', 'UNSPECIFIED', ('UNSPECIFIED'), ('UNSPECIFIED'), ('UNSPECIFIED') ) ;
#108 = PERSON_AND_ORGANIZATION ( #107, #212 ) ;
#109 = CC_DESIGN_APPROVAL ( #78, ( #120 ) ) ;
#110 = PRODUCT_DEFINITION ( 'UNKNOWN', '', #120, #161 ) ;
#111 = VERTEX_POINT ( 'NONE', #165 ) ;
#112 = CARTESIAN_POINT ( 'NONE',  ( 0.0000000000000000000, 0.0000000000000000000, 0.0000000000000000000 ) ) ;
#113 = CONICAL_SURFACE ( 'NONE', #65, 1.499999999999996225, 0.2617993877991425244 ) ;
#114 = CARTESIAN_POINT ( 'NONE',  ( 0.5931483474218652852, 0.0000000000000000000, 1.567638090205025980 ) ) ;
#115 = ORIENTED_EDGE ( 'NONE', *, *, #92, .F. ) ;
#116 = APPLICATION_PROTOCOL_DEFINITION ( 'international standard', 'config_control_design', 1994, #178 ) ;
#117 = CALENDAR_DATE ( 2021, 10, 11 ) ;
#118 = PERSON_AND_ORGANIZATION_ROLE ( 'design_supplier' ) ;
#119 = CIRCLE ( 'NONE', #24, 0.5250000000000002442 ) ;
#120 = PRODUCT_DEFINITION_FORMATION_WITH_SPECIFIED_SOURCE ( 'ANY', '', #63, .NOT_KNOWN. ) ;
#121 = DATE_TIME_ROLE ( 'classification_date' ) ;
#122 = CARTESIAN_POINT ( 'NONE',  ( 3.666055405785290812E-15, -1.517883041479710645E-16, 1.050000000000000044 ) ) ;
#123 = DIRECTION ( 'NONE',  ( 1.000000000000000000, 0.0000000000000000000, -3.491481338843134144E-15 ) ) ;
#124 = DIRECTION ( 'NONE',  ( 1.000000000000000000, 0.0000000000000000000, -3.304235192336773934E-15 ) ) ;
#125 = CARTESIAN_POINT ( 'NONE',  ( -1.786038389295302186E-30, 0.0000000000000000000, -5.115417256925931626E-16 ) ) ;
#126 = AXIS2_PLACEMENT_3D ( 'NONE', #22, #172, #174 ) ;
#127 = EDGE_LOOP ( 'NONE', ( #198 ) ) ;
#128 = EDGE_LOOP ( 'NONE', ( #56 ) ) ;
#129 = DATE_AND_TIME ( #117, #152 ) ;
#130 = EDGE_CURVE ( 'NONE', #232, #232, #94, .T. ) ;
#131 = AXIS2_PLACEMENT_3D ( 'NONE', #112, #185, #164 ) ;
#132 = DIRECTION ( 'NONE',  ( 3.491481338843133355E-15, -0.0000000000000000000, 1.000000000000000000 ) ) ;
#133 = APPROVAL_ROLE ( '' ) ;
#134 = DIRECTION ( 'NONE',  ( 3.491481338843133355E-15, -0.0000000000000000000, 1.000000000000000000 ) ) ;
#135 = FACE_OUTER_BOUND ( 'NONE', #36, .T. ) ;
#136 = PLANE ( 'NONE',  #202 ) ;
#137 = CONICAL_SURFACE ( 'NONE', #29, 1.199999999999998845, 0.7853981633974450594 ) ;
#138 = DIRECTION ( 'NONE',  ( 0.0000000000000000000, 1.000000000000000000, 0.0000000000000000000 ) ) ;
#139 = ADVANCED_FACE ( 'NONE', ( #87 ), #84, .F. ) ;
#140 = APPROVAL_STATUS ( 'not_yet_approved' ) ;
#141 = UNCERTAINTY_MEASURE_WITH_UNIT (LENGTH_MEASURE( 1.000000000000000082E-05 ), #50, 'distance_accuracy_value', 'NONE');
#142 = PERSON_AND_ORGANIZATION_ROLE ( 'creator' ) ;
#143 = ADVANCED_FACE ( 'NONE', ( #20, #242 ), #175, .T. ) ;
#144 = VERTEX_POINT ( 'NONE', #195 ) ;
#145 = ADVANCED_FACE ( 'NONE', ( #188 ), #136, .T. ) ;
#146 = PERSON_AND_ORGANIZATION_ROLE ( 'creator' ) ;
#147 = PERSON_AND_ORGANIZATION ( #107, #212 ) ;
#148 = EDGE_LOOP ( 'NONE', ( #38 ) ) ;
#149 = ORIENTED_EDGE ( 'NONE', *, *, #239, .F. ) ;
#150 = EDGE_LOOP ( 'NONE', ( #149 ) ) ;
#151 = TOROIDAL_SURFACE ( 'NONE', #211, 2.524999999999999467, 1.999999999999999556 ) ;
#152 = LOCAL_TIME ( 7, 36, 30.00000000000000000, #237 ) ;
#153 = DIRECTION ( 'NONE',  ( -4.275831445896958607E-31, -1.000000000000000000, -1.224646799147353207E-16 ) ) ;
#154 = FACE_BOUND ( 'NONE', #241, .T. ) ;
#155 = CARTESIAN_POINT ( 'NONE',  ( 3.666055405785288445E-15, 0.0000000000000000000, 1.049999999999999600 ) ) ;
#156 = ADVANCED_FACE ( 'NONE', ( #207 ), #176, .F. ) ;
#157 = CARTESIAN_POINT ( 'NONE',  ( 1.326762908760390423E-13, 8.998558695971069014E-33, 38.00000000000000000 ) ) ;
#158 = AXIS2_PLACEMENT_3D ( 'NONE', #51, #93, #163 ) ;
#159 = CARTESIAN_POINT ( 'NONE',  ( 1.729000598934768010E-14, 0.0000000000000000000, 4.952054532554525323 ) ) ;
#160 = COORDINATED_UNIVERSAL_TIME_OFFSET ( 1, 0, .AHEAD. ) ;
#161 = DESIGN_CONTEXT ( 'detailed design', #240, 'design' ) ;
#162 = AXIS2_PLACEMENT_3D ( 'NONE', #88, #226, #40 ) ;
#163 = DIRECTION ( 'NONE',  ( 1.000000000000000000, 0.0000000000000000000, 0.0000000000000000000 ) ) ;
#164 = DIRECTION ( 'NONE',  ( 1.000000000000000000, 0.0000000000000000000, -3.491481338843133355E-15 ) ) ;
#165 = CARTESIAN_POINT ( 'NONE',  ( 1.500000000000013545, 0.0000000000000000000, 4.952054532554520883 ) ) ;
#166 = DATE_TIME_ROLE ( 'creation_date' ) ;
#167 = PRODUCT_RELATED_PRODUCT_CATEGORY ( 'detail', '', ( #63 ) ) ;
#168 = DIRECTION ( 'NONE',  ( 3.491481338843133355E-15, -1.224646799147353207E-16, 1.000000000000000000 ) ) ;
#169 = CIRCLE ( 'NONE', #209, 0.5931483474218598451 ) ;
#170 = ADVANCED_FACE ( 'NONE', ( #59, #154 ), #137, .T. ) ;
#171 = EDGE_LOOP ( 'NONE', ( #115 ) ) ;
#172 = DIRECTION ( 'NONE',  ( 3.491481338843133355E-15, -0.0000000000000000000, 1.000000000000000000 ) ) ;
#173 = AXIS2_PLACEMENT_3D ( 'NONE', #106, #23, #179 ) ;
#174 = DIRECTION ( 'NONE',  ( 1.000000000000000000, 0.0000000000000000000, -3.304235192336773934E-15 ) ) ;
#175 = CYLINDRICAL_SURFACE ( 'NONE', #192, 0.5250000000000000222 ) ;
#176 = PLANE ( 'NONE',  #103 ) ;
#177 = AXIS2_PLACEMENT_3D ( 'NONE', #157, #228, #64 ) ;
#178 = APPLICATION_CONTEXT ( 'configuration controlled 3d designs of mechanical parts and assemblies' ) ;
#179 = DIRECTION ( 'NONE',  ( 4.275831445896958607E-31, 1.000000000000000000, 1.224646799147352961E-16 ) ) ;
#180 = APPROVAL ( #222, 'UNSPECIFIED' ) ;
#181 = APPROVAL_STATUS ( 'not_yet_approved' ) ;
#182 = AXIS2_PLACEMENT_3D ( 'NONE', #52, #168, #41 ) ;
#183 = CALENDAR_DATE ( 2021, 10, 11 ) ;
#184 = CARTESIAN_POINT ( 'NONE',  ( 0.5250000000000040190, 0.0000000000000000000, 1.049999999999997824 ) ) ;
#185 = DIRECTION ( 'NONE',  ( 3.491481338843133355E-15, -0.0000000000000000000, 1.000000000000000000 ) ) ;
#186 = ORIENTED_EDGE ( 'NONE', *, *, #26, .T. ) ;
#187 = EDGE_LOOP ( 'NONE', ( #12 ) ) ;
#188 = FACE_OUTER_BOUND ( 'NONE', #58, .T. ) ;
#189 = PERSON_AND_ORGANIZATION_ROLE ( 'classification_officer' ) ;
#190 = LOCAL_TIME ( 7, 36, 30.00000000000000000, #215 ) ;
#191 = CARTESIAN_POINT ( 'NONE',  ( 5.473379138010544037E-15, 0.0000000000000000000, 1.567638090205028201 ) ) ;
#192 = AXIS2_PLACEMENT_3D ( 'NONE', #125, #102, #123 ) ;
#193 = APPROVAL_PERSON_ORGANIZATION ( #66, #78, #210 ) ;
#194 = ADVANCED_FACE ( 'NONE', ( #104, #231 ), #113, .T. ) ;
#195 = CARTESIAN_POINT ( 'NONE',  ( 1.326762908760390423E-13, 1.199999999999994182, 38.00000000000000000 ) ) ;
#196 = PERSON_AND_ORGANIZATION ( #107, #212 ) ;
#197 = APPROVAL ( #181, 'UNSPECIFIED' ) ;
#198 = ORIENTED_EDGE ( 'NONE', *, *, #130, .T. ) ;
#199 = DATE_AND_TIME ( #183, #190 ) ;
#200 = DIRECTION ( 'NONE',  ( 3.491481338843133355E-15, -0.0000000000000000000, 1.000000000000000000 ) ) ;
#201 = EDGE_LOOP ( 'NONE', ( #96 ) ) ;
#202 = AXIS2_PLACEMENT_3D ( 'NONE', #82, #15, #153 ) ;
#203 = DIRECTION ( 'NONE',  ( 1.000000000000000000, 0.0000000000000000000, -3.469446951953622866E-15 ) ) ;
#204 = DATE_AND_TIME ( #19, #227 ) ;
#205 = CARTESIAN_POINT ( 'NONE',  ( 1.729000598934768010E-14, 0.0000000000000000000, 4.952054532554525323 ) ) ;
#206 = CIRCLE ( 'NONE', #162, 1.499999999999998446 ) ;
#207 = FACE_OUTER_BOUND ( 'NONE', #219, .T. ) ;
#208 = DIRECTION ( 'NONE',  ( 3.491481338843133355E-15, -0.0000000000000000000, 1.000000000000000000 ) ) ;
#209 = AXIS2_PLACEMENT_3D ( 'NONE', #191, #134, #60 ) ;
#210 = APPROVAL_ROLE ( '' ) ;
#211 = AXIS2_PLACEMENT_3D ( 'NONE', #54, #200, #11 ) ;
#212 = ORGANIZATION ( 'UNSPECIFIED', 'UNSPECIFIED', '' ) ;
#213 = CC_DESIGN_APPROVAL ( #180, ( #238 ) ) ;
#214 = VERTEX_POINT ( 'NONE', #114 ) ;
#215 = COORDINATED_UNIVERSAL_TIME_OFFSET ( 1, 0, .AHEAD. ) ;
#216 = FACE_OUTER_BOUND ( 'NONE', #127, .T. ) ;
#217 = FACE_OUTER_BOUND ( 'NONE', #201, .T. ) ;
#218 = ORIENTED_EDGE ( 'NONE', *, *, #130, .F. ) ;
#219 = EDGE_LOOP ( 'NONE', ( #218 ) ) ;
#220 = ORIENTED_EDGE ( 'NONE', *, *, #89, .F. ) ;
#221 = CLOSED_SHELL ( 'NONE', ( #229, #170, #139, #10, #194, #156 ) ) ;
#222 = APPROVAL_STATUS ( 'not_yet_approved' ) ;
#223 = APPROVAL_PERSON_ORGANIZATION ( #101, #180, #133 ) ;
#224 = DIRECTION ( 'NONE',  ( -4.275831445896958607E-31, -1.000000000000000000, -1.224646799147353207E-16 ) ) ;
#225 = DIRECTION ( 'NONE',  ( 0.0000000000000000000, 1.000000000000000000, 0.0000000000000000000 ) ) ;
#226 = DIRECTION ( 'NONE',  ( -3.491481338843133355E-15, 1.224646799147353207E-16, -1.000000000000000000 ) ) ;
#227 = LOCAL_TIME ( 7, 36, 30.00000000000000000, #16 ) ;
#228 = DIRECTION ( 'NONE',  ( -3.491481338843133355E-15, 1.224646799147353207E-16, -1.000000000000000000 ) ) ;
#229 = ADVANCED_FACE ( 'NONE', ( #135, #1 ), #46, .T. ) ;
#230 = LOCAL_TIME ( 7, 36, 30.00000000000000000, #69 ) ;
#231 = FACE_OUTER_BOUND ( 'NONE', #150, .T. ) ;
#232 = VERTEX_POINT ( 'NONE', #95 ) ;
#233 = APPROVAL_DATE_TIME ( #8, #197 ) ;
#234 = MECHANICAL_CONTEXT ( 'NONE', #178, 'mechanical' ) ;
#235 = FACE_OUTER_BOUND ( 'NONE', #70, .T. ) ;
#236 = APPLICATION_PROTOCOL_DEFINITION ( 'international standard', 'config_control_design', 1994, #240 ) ;
#237 = COORDINATED_UNIVERSAL_TIME_OFFSET ( 1, 0, .AHEAD. ) ;
#238 = SECURITY_CLASSIFICATION ( '', '', #79 ) ;
#239 = EDGE_CURVE ( 'NONE', #111, #111, #27, .T. ) ;
#240 = APPLICATION_CONTEXT ( 'configuration controlled 3d designs of mechanical parts and assemblies' ) ;
#241 = EDGE_LOOP ( 'NONE', ( #14 ) ) ;
#242 = FACE_OUTER_BOUND ( 'NONE', #37, .T. ) ;
#243 = CC_DESIGN_DATE_AND_TIME_ASSIGNMENT ( #204, #121, ( #238 ) ) ;
ENDSEC;
END-ISO-10303-21;
