ISO-10303-21;
HEADER;
FILE_DESCRIPTION (( 'STEP AP203' ),
    '1' );
FILE_NAME ('63690.step',
    '2021-11-10T06:36:29',
    ( '' ),
    ( '' ),
    'SwSTEP 2.0',
    'SolidWorks 2019',
    '' );
FILE_SCHEMA (( 'CONFIG_CONTROL_DESIGN' ));
ENDSEC;

DATA;
#1 = ADVANCED_FACE ( 'NONE', ( #216, #32 ), #72, .F. ) ;
#2 = VERTEX_POINT ( 'NONE', #189 ) ;
#3 = CIRCLE ( 'NONE', #209, 0.4749999999999997558 ) ;
#4 = CARTESIAN_POINT ( 'NONE',  ( 3.316907271900975899E-15, -1.373322751814975817E-16, 0.9499999999999997335 ) ) ;
#5 = LOCAL_TIME ( 7, 36, 29.00000000000000000, #48 ) ;
#6 = CC_DESIGN_PERSON_AND_ORGANIZATION_ASSIGNMENT ( #177, #165, ( #191 ) ) ;
#7 = COORDINATED_UNIVERSAL_TIME_OFFSET ( 1, 0, .AHEAD. ) ;
#8 = PERSON_AND_ORGANIZATION ( #168, #102 ) ;
#9 = ADVANCED_FACE ( 'NONE', ( #107, #145 ), #83, .T. ) ;
#10 = SHAPE_DEFINITION_REPRESENTATION ( #80, #26 ) ;
#11 = CC_DESIGN_PERSON_AND_ORGANIZATION_ASSIGNMENT ( #73, #141, ( #93 ) ) ;
#12 = DATE_AND_TIME ( #15, #151 ) ;
#13 = CARTESIAN_POINT ( 'NONE',  ( 0.0000000000000000000, 0.0000000000000000000, 0.0000000000000000000 ) ) ;
#14 = CC_DESIGN_APPROVAL ( #43, ( #138 ) ) ;
#15 = CALENDAR_DATE ( 2021, 10, 11 ) ;
#16 = CARTESIAN_POINT ( 'NONE',  ( 1.759237714297543368E-14, 0.0000000000000000000, 5.038657072932970493 ) ) ;
#17 = DIRECTION ( 'NONE',  ( 3.491481338843133355E-15, -0.0000000000000000000, 1.000000000000000000 ) ) ;
#18 = DIRECTION ( 'NONE',  ( 1.000000000000000000, 0.0000000000000000000, -3.423796334164752505E-15 ) ) ;
#19 = DIRECTION ( 'NONE',  ( 3.491481338843133355E-15, -0.0000000000000000000, 1.000000000000000000 ) ) ;
#20 = ORIENTED_EDGE ( 'NONE', *, *, #71, .T. ) ;
#21 = CARTESIAN_POINT ( 'NONE',  ( 1.759237714297543368E-14, 0.0000000000000000000, 5.038657072932970493 ) ) ;
#22 = ADVANCED_FACE ( 'NONE', ( #76 ), #184, .F. ) ;
#23 = DIRECTION ( 'NONE',  ( 1.000000000000000000, 0.0000000000000000000, -3.469446951953622866E-15 ) ) ;
#24 = DIRECTION ( 'NONE',  ( 0.0000000000000000000, 1.000000000000000000, 0.0000000000000000000 ) ) ;
#25 = LOCAL_TIME ( 7, 36, 29.00000000000000000, #144 ) ;
#26 = ADVANCED_BREP_SHAPE_REPRESENTATION ( '63690', ( #174, #175, #133 ), #68 ) ;
#27 = APPROVAL_PERSON_ORGANIZATION ( #89, #43, #240 ) ;
#28 = EDGE_CURVE ( 'NONE', #172, #172, #3, .T. ) ;
#29 = CIRCLE ( 'NONE', #230, 1.499999999999998446 ) ;
#30 = PERSON_AND_ORGANIZATION_ROLE ( 'design_supplier' ) ;
#31 = APPROVAL_DATE_TIME ( #12, #173 ) ;
#32 = FACE_OUTER_BOUND ( 'NONE', #163, .T. ) ;
#33 = AXIS2_PLACEMENT_3D ( 'NONE', #222, #61, #178 ) ;
#34 = EDGE_LOOP ( 'NONE', ( #159 ) ) ;
#35 = APPLICATION_CONTEXT ( 'configuration controlled 3d designs of mechanical parts and assemblies' ) ;
#36 = DATE_AND_TIME ( #106, #232 ) ;
#37 = CARTESIAN_POINT ( 'NONE',  ( 1.326762908760390423E-13, 8.998558695971069014E-33, 38.00000000000000000 ) ) ;
#38 = AXIS2_PLACEMENT_3D ( 'NONE', #59, #152, #101 ) ;
#39 = CARTESIAN_POINT ( 'NONE',  ( 1.326762908760390423E-13, -4.653657836759941941E-15, 38.00000000000000000 ) ) ;
#40 = CARTESIAN_POINT ( 'NONE',  ( 3.316907271900974715E-15, 0.0000000000000000000, 0.9499999999999995115 ) ) ;
#41 = DESIGN_CONTEXT ( 'detailed design', #212, 'design' ) ;
#42 = FACE_OUTER_BOUND ( 'NONE', #94, .T. ) ;
#43 = APPROVAL ( #142, 'UNSPECIFIED' ) ;
#44 = DIRECTION ( 'NONE',  ( 3.491481338843133355E-15, -0.0000000000000000000, 1.000000000000000000 ) ) ;
#45 = FACE_OUTER_BOUND ( 'NONE', #128, .T. ) ;
#46 = CYLINDRICAL_SURFACE ( 'NONE', #38, 1.499999999999996447 ) ;
#47 = CC_DESIGN_PERSON_AND_ORGANIZATION_ASSIGNMENT ( #52, #87, ( #213 ) ) ;
#48 = COORDINATED_UNIVERSAL_TIME_OFFSET ( 1, 0, .AHEAD. ) ;
#49 = AXIS2_PLACEMENT_3D ( 'NONE', #40, #127, #90 ) ;
#50 = DATE_AND_TIME ( #231, #86 ) ;
#51 = AXIS2_PLACEMENT_3D ( 'NONE', #169, #81, #65 ) ;
#52 = PERSON_AND_ORGANIZATION ( #168, #102 ) ;
#53 = PERSON_AND_ORGANIZATION ( #168, #102 ) ;
#54 = EDGE_LOOP ( 'NONE', ( #78 ) ) ;
#55 =( NAMED_UNIT ( * ) PLANE_ANGLE_UNIT ( ) SI_UNIT ( $, .RADIAN. ) );
#56 = ORIENTED_EDGE ( 'NONE', *, *, #148, .F. ) ;
#57 = ADVANCED_FACE ( 'NONE', ( #166 ), #241, .T. ) ;
#58 = EDGE_LOOP ( 'NONE', ( #97 ) ) ;
#59 = CARTESIAN_POINT ( 'NONE',  ( 0.0000000000000000000, 0.0000000000000000000, 0.0000000000000000000 ) ) ;
#60 = CALENDAR_DATE ( 2021, 10, 11 ) ;
#61 = DIRECTION ( 'NONE',  ( 3.491481338843133355E-15, -1.224646799147353207E-16, 1.000000000000000000 ) ) ;
#62 = VERTEX_POINT ( 'NONE', #204 ) ;
#63 = CC_DESIGN_APPROVAL ( #210, ( #93 ) ) ;
#64 = CARTESIAN_POINT ( 'NONE',  ( 3.316907271900973927E-15, 0.0000000000000000000, 0.9499999999999992895 ) ) ;
#65 = DIRECTION ( 'NONE',  ( -4.275831445896958607E-31, -1.000000000000000000, -1.224646799147353207E-16 ) ) ;
#66 = CC_DESIGN_DATE_AND_TIME_ASSIGNMENT ( #36, #109, ( #213 ) ) ;
#67 = CARTESIAN_POINT ( 'NONE',  ( 1.316288464743861212E-13, 1.499999999999994005, 37.69999999999999574 ) ) ;
#68 =( GEOMETRIC_REPRESENTATION_CONTEXT ( 3 ) GLOBAL_UNCERTAINTY_ASSIGNED_CONTEXT ( ( #223 ) ) GLOBAL_UNIT_ASSIGNED_CONTEXT ( ( #181, #55, #162 ) ) REPRESENTATION_CONTEXT ( 'NONE', 'WORKASPACE' ) );
#69 = CIRCLE ( 'NONE', #211, 0.5431483474218598007 ) ;
#70 = EDGE_CURVE ( 'NONE', #2, #2, #139, .T. ) ;
#71 = EDGE_CURVE ( 'NONE', #207, #207, #116, .T. ) ;
#72 = TOROIDAL_SURFACE ( 'NONE', #49, 2.474999999999999645, 2.000000000000000000 ) ;
#73 = PERSON_AND_ORGANIZATION ( #168, #102 ) ;
#74 = EDGE_LOOP ( 'NONE', ( #237 ) ) ;
#75 = PRODUCT_RELATED_PRODUCT_CATEGORY ( 'detail', '', ( #191 ) ) ;
#76 = FACE_OUTER_BOUND ( 'NONE', #58, .T. ) ;
#77 = APPLICATION_PROTOCOL_DEFINITION ( 'international standard', 'config_control_design', 1994, #212 ) ;
#78 = ORIENTED_EDGE ( 'NONE', *, *, #105, .F. ) ;
#79 = ORIENTED_EDGE ( 'NONE', *, *, #198, .T. ) ;
#80 = PRODUCT_DEFINITION_SHAPE ( 'NONE', 'NONE',  #213 ) ;
#81 = DIRECTION ( 'NONE',  ( 3.491481338843133355E-15, -1.224646799147353207E-16, 1.000000000000000000 ) ) ;
#82 = DIRECTION ( 'NONE',  ( 1.000000000000000000, 0.0000000000000000000, -3.423796334164752505E-15 ) ) ;
#83 = CONICAL_SURFACE ( 'NONE', #123, 1.499999999999996225, 0.2617993877991428575 ) ;
#84 = FACE_OUTER_BOUND ( 'NONE', #34, .T. ) ;
#85 = CARTESIAN_POINT ( 'NONE',  ( 1.326762908760390423E-13, 1.199999999999994182, 38.00000000000000000 ) ) ;
#86 = LOCAL_TIME ( 7, 36, 29.00000000000000000, #7 ) ;
#87 = PERSON_AND_ORGANIZATION_ROLE ( 'creator' ) ;
#88 = ORIENTED_EDGE ( 'NONE', *, *, #70, .F. ) ;
#89 = PERSON_AND_ORGANIZATION ( #168, #102 ) ;
#90 = DIRECTION ( 'NONE',  ( 1.000000000000000000, 0.0000000000000000000, -3.491481338843133355E-15 ) ) ;
#91 = EDGE_LOOP ( 'NONE', ( #79 ) ) ;
#92 = APPROVAL_ROLE ( '' ) ;
#93 = SECURITY_CLASSIFICATION ( '', '', #234 ) ;
#94 = EDGE_LOOP ( 'NONE', ( #202 ) ) ;
#95 = AXIS2_PLACEMENT_3D ( 'NONE', #96, #132, #24 ) ;
#96 = CARTESIAN_POINT ( 'NONE',  ( 1.326762908760390423E-13, -4.653657836759941941E-15, 38.00000000000000000 ) ) ;
#97 = ORIENTED_EDGE ( 'NONE', *, *, #71, .F. ) ;
#98 = FACE_OUTER_BOUND ( 'NONE', #235, .T. ) ;
#99 = CARTESIAN_POINT ( 'NONE',  ( 0.4750000000000030309, 0.0000000000000000000, 0.9499999999999976241 ) ) ;
#100 = AXIS2_PLACEMENT_3D ( 'NONE', #39, #243, #225 ) ;
#101 = DIRECTION ( 'NONE',  ( 4.275831445896958607E-31, 1.000000000000000000, 1.224646799147352961E-16 ) ) ;
#102 = ORGANIZATION ( 'UNSPECIFIED', 'UNSPECIFIED', '' ) ;
#103 = APPROVAL_DATE_TIME ( #50, #210 ) ;
#104 = MECHANICAL_CONTEXT ( 'NONE', #35, 'mechanical' ) ;
#105 = EDGE_CURVE ( 'NONE', #153, #153, #29, .T. ) ;
#106 = CALENDAR_DATE ( 2021, 10, 11 ) ;
#107 = FACE_BOUND ( 'NONE', #218, .T. ) ;
#108 = CARTESIAN_POINT ( 'NONE',  ( 3.316907271900973927E-15, 0.0000000000000000000, 0.9499999999999992895 ) ) ;
#109 = DATE_TIME_ROLE ( 'creation_date' ) ;
#110 = DIRECTION ( 'NONE',  ( -3.491481338843133355E-15, 1.224646799147353207E-16, -1.000000000000000000 ) ) ;
#111 = DIRECTION ( 'NONE',  ( 3.491481338843133355E-15, -0.0000000000000000000, 1.000000000000000000 ) ) ;
#112 = EDGE_LOOP ( 'NONE', ( #197 ) ) ;
#113 = DIRECTION ( 'NONE',  ( 3.491481338843133355E-15, -1.224646799147353207E-16, 1.000000000000000000 ) ) ;
#114 = CARTESIAN_POINT ( 'NONE',  ( 5.124231004126231491E-15, 0.0000000000000000000, 1.467638090205028112 ) ) ;
#115 = DIRECTION ( 'NONE',  ( 3.491481338843133355E-15, -0.0000000000000000000, 1.000000000000000000 ) ) ;
#116 = CIRCLE ( 'NONE', #100, 1.199999999999998845 ) ;
#117 = APPROVAL_STATUS ( 'not_yet_approved' ) ;
#118 = CIRCLE ( 'NONE', #205, 1.499999999999996225 ) ;
#119 = CLOSED_SHELL ( 'NONE', ( #57, #135, #227 ) ) ;
#120 = APPROVAL_ROLE ( '' ) ;
#121 = DATE_TIME_ROLE ( 'classification_date' ) ;
#122 = CC_DESIGN_SECURITY_CLASSIFICATION ( #93, ( #138 ) ) ;
#123 = AXIS2_PLACEMENT_3D ( 'NONE', #16, #182, #161 ) ;
#124 = PERSON_AND_ORGANIZATION_ROLE ( 'creator' ) ;
#125 = CC_DESIGN_PERSON_AND_ORGANIZATION_ASSIGNMENT ( #195, #30, ( #138 ) ) ;
#126 = ORIENTED_EDGE ( 'NONE', *, *, #198, .F. ) ;
#127 = DIRECTION ( 'NONE',  ( 3.491481338843133355E-15, -0.0000000000000000000, 1.000000000000000000 ) ) ;
#128 = EDGE_LOOP ( 'NONE', ( #186 ) ) ;
#129 = PLANE ( 'NONE',  #147 ) ;
#130 = DATE_AND_TIME ( #60, #25 ) ;
#131 = ORIENTED_EDGE ( 'NONE', *, *, #192, .T. ) ;
#132 = DIRECTION ( 'NONE',  ( -3.491481338843133355E-15, 1.224646799147353207E-16, -1.000000000000000000 ) ) ;
#133 = AXIS2_PLACEMENT_3D ( 'NONE', #217, #236, #215 ) ;
#134 = DIRECTION ( 'NONE',  ( 0.0000000000000000000, 1.000000000000000000, 0.0000000000000000000 ) ) ;
#135 = ADVANCED_FACE ( 'NONE', ( #84, #45 ), #187, .T. ) ;
#136 = DIRECTION ( 'NONE',  ( 1.000000000000000000, 0.0000000000000000000, -3.491481338843132961E-15 ) ) ;
#137 = DIRECTION ( 'NONE',  ( -3.491481338843133355E-15, 1.224646799147353207E-16, -1.000000000000000000 ) ) ;
#138 = PRODUCT_DEFINITION_FORMATION_WITH_SPECIFIED_SOURCE ( 'ANY', '', #191, .NOT_KNOWN. ) ;
#139 = CIRCLE ( 'NONE', #171, 0.4749999999999997558 ) ;
#140 = ADVANCED_FACE ( 'NONE', ( #206, #149 ), #194, .T. ) ;
#141 = PERSON_AND_ORGANIZATION_ROLE ( 'classification_officer' ) ;
#142 = APPROVAL_STATUS ( 'not_yet_approved' ) ;
#143 = ORIENTED_EDGE ( 'NONE', *, *, #148, .T. ) ;
#144 = COORDINATED_UNIVERSAL_TIME_OFFSET ( 1, 0, .AHEAD. ) ;
#145 = FACE_OUTER_BOUND ( 'NONE', #179, .T. ) ;
#146 = VERTEX_POINT ( 'NONE', #224 ) ;
#147 = AXIS2_PLACEMENT_3D ( 'NONE', #4, #113, #203 ) ;
#148 = EDGE_CURVE ( 'NONE', #146, #146, #69, .T. ) ;
#149 = FACE_BOUND ( 'NONE', #220, .T. ) ;
#150 = CC_DESIGN_DATE_AND_TIME_ASSIGNMENT ( #190, #121, ( #93 ) ) ;
#151 = LOCAL_TIME ( 7, 36, 29.00000000000000000, #221 ) ;
#152 = DIRECTION ( 'NONE',  ( -3.491481338843133355E-15, 1.224646799147353207E-16, -1.000000000000000000 ) ) ;
#153 = VERTEX_POINT ( 'NONE', #67 ) ;
#154 = APPROVAL_PERSON_ORGANIZATION ( #8, #210, #120 ) ;
#155 = ADVANCED_FACE ( 'NONE', ( #167, #242 ), #46, .T. ) ;
#156 = CIRCLE ( 'NONE', #176, 0.4749999999999997558 ) ;
#157 = APPROVAL_PERSON_ORGANIZATION ( #53, #173, #92 ) ;
#158 = PERSON_AND_ORGANIZATION ( #168, #102 ) ;
#159 = ORIENTED_EDGE ( 'NONE', *, *, #70, .T. ) ;
#160 = CARTESIAN_POINT ( 'NONE',  ( 1.500000000000013767, 0.0000000000000000000, 5.038657072932965164 ) ) ;
#161 = DIRECTION ( 'NONE',  ( 1.000000000000000000, 0.0000000000000000000, -3.469446951953622866E-15 ) ) ;
#162 =( NAMED_UNIT ( * ) SI_UNIT ( $, .STERADIAN. ) SOLID_ANGLE_UNIT ( ) );
#163 = EDGE_LOOP ( 'NONE', ( #56 ) ) ;
#164 = AXIS2_PLACEMENT_3D ( 'NONE', #170, #111, #185 ) ;
#165 = PERSON_AND_ORGANIZATION_ROLE ( 'design_owner' ) ;
#166 = FACE_OUTER_BOUND ( 'NONE', #238, .T. ) ;
#167 = FACE_OUTER_BOUND ( 'NONE', #74, .T. ) ;
#168 = PERSON ( 'UNSPECIFIED', 'UNSPECIFIED', 'UNSPECIFIED', ('UNSPECIFIED'), ('UNSPECIFIED'), ('UNSPECIFIED') ) ;
#169 = CARTESIAN_POINT ( 'NONE',  ( -6.413803915257457113E-31, 2.249659577954772199E-32, -1.836986451539393076E-16 ) ) ;
#170 = CARTESIAN_POINT ( 'NONE',  ( -1.786038389295302186E-30, 0.0000000000000000000, -5.115417256925931626E-16 ) ) ;
#171 = AXIS2_PLACEMENT_3D ( 'NONE', #13, #19, #136 ) ;
#172 = VERTEX_POINT ( 'NONE', #99 ) ;
#173 = APPROVAL ( #219, 'UNSPECIFIED' ) ;
#174 = MANIFOLD_SOLID_BREP ( 'Corps-Déplacer/Copier1[1]', #199 ) ;
#175 = MANIFOLD_SOLID_BREP ( 'Corps-Déplacer/Copier1[2]', #119 ) ;
#176 = AXIS2_PLACEMENT_3D ( 'NONE', #64, #44, #82 ) ;
#177 = PERSON_AND_ORGANIZATION ( #168, #102 ) ;
#178 = DIRECTION ( 'NONE',  ( -4.275831445896958607E-31, -1.000000000000000000, -1.224646799147353207E-16 ) ) ;
#179 = EDGE_LOOP ( 'NONE', ( #126 ) ) ;
#180 = ADVANCED_FACE ( 'NONE', ( #42 ), #129, .F. ) ;
#181 =( LENGTH_UNIT ( ) NAMED_UNIT ( * ) SI_UNIT ( .MILLI., .METRE. ) );
#182 = DIRECTION ( 'NONE',  ( 3.491481338843133355E-15, -0.0000000000000000000, 1.000000000000000000 ) ) ;
#183 = VERTEX_POINT ( 'NONE', #160 ) ;
#184 = PLANE ( 'NONE',  #239 ) ;
#185 = DIRECTION ( 'NONE',  ( 1.000000000000000000, 0.0000000000000000000, -3.491481338843132961E-15 ) ) ;
#186 = ORIENTED_EDGE ( 'NONE', *, *, #192, .F. ) ;
#187 = CYLINDRICAL_SURFACE ( 'NONE', #164, 0.4749999999999997558 ) ;
#188 = DIRECTION ( 'NONE',  ( 3.491481338843133355E-15, -0.0000000000000000000, 1.000000000000000000 ) ) ;
#189 = CARTESIAN_POINT ( 'NONE',  ( 0.4749999999999997558, 0.0000000000000000000, -1.658453635950487358E-15 ) ) ;
#190 = DATE_AND_TIME ( #229, #5 ) ;
#191 = PRODUCT ( '63690', '63690', '', ( #104 ) ) ;
#192 = EDGE_CURVE ( 'NONE', #62, #62, #156, .T. ) ;
#193 = CC_DESIGN_APPROVAL ( #173, ( #213 ) ) ;
#194 = CONICAL_SURFACE ( 'NONE', #95, 1.199999999999998845, 0.7853981633974450594 ) ;
#195 = PERSON_AND_ORGANIZATION ( #168, #102 ) ;
#196 = APPLICATION_PROTOCOL_DEFINITION ( 'international standard', 'config_control_design', 1994, #35 ) ;
#197 = ORIENTED_EDGE ( 'NONE', *, *, #28, .T. ) ;
#198 = EDGE_CURVE ( 'NONE', #183, #183, #118, .T. ) ;
#199 = CLOSED_SHELL ( 'NONE', ( #155, #140, #22, #1, #9, #180 ) ) ;
#200 = DIRECTION ( 'NONE',  ( 4.275831445896958607E-31, 1.000000000000000000, 1.224646799147353207E-16 ) ) ;
#201 = COORDINATED_UNIVERSAL_TIME_OFFSET ( 1, 0, .AHEAD. ) ;
#202 = ORIENTED_EDGE ( 'NONE', *, *, #28, .F. ) ;
#203 = DIRECTION ( 'NONE',  ( -4.275831445896958607E-31, -1.000000000000000000, -1.224646799147353207E-16 ) ) ;
#204 = CARTESIAN_POINT ( 'NONE',  ( 0.4750000000000030309, 0.0000000000000000000, 0.9499999999999976241 ) ) ;
#205 = AXIS2_PLACEMENT_3D ( 'NONE', #21, #188, #23 ) ;
#206 = FACE_OUTER_BOUND ( 'NONE', #54, .T. ) ;
#207 = VERTEX_POINT ( 'NONE', #85 ) ;
#208 = DIRECTION ( 'NONE',  ( 1.000000000000000000, 0.0000000000000000000, -3.593058728314864803E-15 ) ) ;
#209 = AXIS2_PLACEMENT_3D ( 'NONE', #108, #17, #18 ) ;
#210 = APPROVAL ( #117, 'UNSPECIFIED' ) ;
#211 = AXIS2_PLACEMENT_3D ( 'NONE', #114, #115, #208 ) ;
#212 = APPLICATION_CONTEXT ( 'configuration controlled 3d designs of mechanical parts and assemblies' ) ;
#213 = PRODUCT_DEFINITION ( 'UNKNOWN', '', #138, #41 ) ;
#214 = APPROVAL_DATE_TIME ( #130, #43 ) ;
#215 = DIRECTION ( 'NONE',  ( 1.000000000000000000, 0.0000000000000000000, 0.0000000000000000000 ) ) ;
#216 = FACE_OUTER_BOUND ( 'NONE', #112, .T. ) ;
#217 = CARTESIAN_POINT ( 'NONE',  ( 0.0000000000000000000, 0.0000000000000000000, 0.0000000000000000000 ) ) ;
#218 = EDGE_LOOP ( 'NONE', ( #143 ) ) ;
#219 = APPROVAL_STATUS ( 'not_yet_approved' ) ;
#220 = EDGE_LOOP ( 'NONE', ( #20 ) ) ;
#221 = COORDINATED_UNIVERSAL_TIME_OFFSET ( 1, 0, .AHEAD. ) ;
#222 = CARTESIAN_POINT ( 'NONE',  ( 3.316907271900975899E-15, -1.373322751814975817E-16, 0.9499999999999997335 ) ) ;
#223 = UNCERTAINTY_MEASURE_WITH_UNIT (LENGTH_MEASURE( 1.000000000000000082E-05 ), #181, 'distance_accuracy_value', 'NONE');
#224 = CARTESIAN_POINT ( 'NONE',  ( 0.5431483474218647967, 0.0000000000000000000, 1.467638090205026336 ) ) ;
#225 = DIRECTION ( 'NONE',  ( 0.0000000000000000000, 1.000000000000000000, 0.0000000000000000000 ) ) ;
#226 = CARTESIAN_POINT ( 'NONE',  ( 1.316288464743861212E-13, -4.616918432785521081E-15, 37.69999999999999574 ) ) ;
#227 = ADVANCED_FACE ( 'NONE', ( #98 ), #228, .F. ) ;
#228 = PLANE ( 'NONE',  #51 ) ;
#229 = CALENDAR_DATE ( 2021, 10, 11 ) ;
#230 = AXIS2_PLACEMENT_3D ( 'NONE', #226, #137, #134 ) ;
#231 = CALENDAR_DATE ( 2021, 10, 11 ) ;
#232 = LOCAL_TIME ( 7, 36, 29.00000000000000000, #201 ) ;
#233 = CC_DESIGN_PERSON_AND_ORGANIZATION_ASSIGNMENT ( #158, #124, ( #138 ) ) ;
#234 = SECURITY_CLASSIFICATION_LEVEL ( 'unclassified' ) ;
#235 = EDGE_LOOP ( 'NONE', ( #88 ) ) ;
#236 = DIRECTION ( 'NONE',  ( 0.0000000000000000000, 0.0000000000000000000, 1.000000000000000000 ) ) ;
#237 = ORIENTED_EDGE ( 'NONE', *, *, #105, .T. ) ;
#238 = EDGE_LOOP ( 'NONE', ( #131 ) ) ;
#239 = AXIS2_PLACEMENT_3D ( 'NONE', #37, #110, #200 ) ;
#240 = APPROVAL_ROLE ( '' ) ;
#241 = PLANE ( 'NONE',  #33 ) ;
#242 = FACE_OUTER_BOUND ( 'NONE', #91, .T. ) ;
#243 = DIRECTION ( 'NONE',  ( -3.491481338843133355E-15, 1.224646799147353207E-16, -1.000000000000000000 ) ) ;
ENDSEC;
END-ISO-10303-21;
