ISO-10303-21;
HEADER;
FILE_DESCRIPTION (( 'STEP AP203' ),
    '1' );
FILE_NAME ('63689.step',
    '2021-11-10T06:36:29',
    ( '' ),
    ( '' ),
    'SwSTEP 2.0',
    'SolidWorks 2019',
    '' );
FILE_SCHEMA (( 'CONFIG_CONTROL_DESIGN' ));
ENDSEC;

DATA;
#1 = CARTESIAN_POINT ( 'NONE',  ( 1.326762908760390423E-13, 1.199999999999994182, 38.00000000000000000 ) ) ;
#2 = CC_DESIGN_APPROVAL ( #50, ( #84 ) ) ;
#3 = ADVANCED_FACE ( 'NONE', ( #32, #173 ), #12, .T. ) ;
#4 = PERSON_AND_ORGANIZATION ( #72, #212 ) ;
#5 = CIRCLE ( 'NONE', #125, 1.199999999999998845 ) ;
#6 = EDGE_LOOP ( 'NONE', ( #213 ) ) ;
#7 = PERSON_AND_ORGANIZATION ( #72, #212 ) ;
#8 = ORIENTED_EDGE ( 'NONE', *, *, #96, .T. ) ;
#9 = AXIS2_PLACEMENT_3D ( 'NONE', #143, #51, #216 ) ;
#10 = ORIENTED_EDGE ( 'NONE', *, *, #96, .F. ) ;
#11 = CARTESIAN_POINT ( 'NONE',  ( 3.142333204958818836E-15, -1.301042606982608526E-16, 0.8999999999999996891 ) ) ;
#12 = CYLINDRICAL_SURFACE ( 'NONE', #55, 1.499999999999996447 ) ;
#13 = ADVANCED_FACE ( 'NONE', ( #239 ), #69, .F. ) ;
#14 = DIRECTION ( 'NONE',  ( 3.491481338843133355E-15, -0.0000000000000000000, 1.000000000000000000 ) ) ;
#15 = DIRECTION ( 'NONE',  ( -4.275831445896958607E-31, -1.000000000000000000, -1.224646799147353207E-16 ) ) ;
#16 = APPROVAL ( #225, 'UNSPECIFIED' ) ;
#17 = DIRECTION ( 'NONE',  ( 1.000000000000000000, 0.0000000000000000000, -3.491481338843133355E-15 ) ) ;
#18 =( LENGTH_UNIT ( ) NAMED_UNIT ( * ) SI_UNIT ( .MILLI., .METRE. ) );
#19 = ADVANCED_BREP_SHAPE_REPRESENTATION ( '63689', ( #184, #24, #124 ), #40 ) ;
#20 = DATE_AND_TIME ( #201, #105 ) ;
#21 = CARTESIAN_POINT ( 'NONE',  ( 0.4500000000000030087, 0.0000000000000000000, 0.8999999999999976907 ) ) ;
#22 = CIRCLE ( 'NONE', #9, 0.5181483474218598895 ) ;
#23 = PERSON_AND_ORGANIZATION_ROLE ( 'design_supplier' ) ;
#24 = MANIFOLD_SOLID_BREP ( 'Corps-Déplacer/Copier1[2]', #214 ) ;
#25 = CIRCLE ( 'NONE', #197, 0.4499999999999999001 ) ;
#26 = SHAPE_DEFINITION_REPRESENTATION ( #87, #19 ) ;
#27 = EDGE_LOOP ( 'NONE', ( #8 ) ) ;
#28 = ORIENTED_EDGE ( 'NONE', *, *, #136, .F. ) ;
#29 = FACE_OUTER_BOUND ( 'NONE', #67, .T. ) ;
#30 = FACE_OUTER_BOUND ( 'NONE', #83, .T. ) ;
#31 = CARTESIAN_POINT ( 'NONE',  ( -1.786038389295302186E-30, 0.0000000000000000000, -5.115417256925931626E-16 ) ) ;
#32 = FACE_OUTER_BOUND ( 'NONE', #42, .T. ) ;
#33 = VERTEX_POINT ( 'NONE', #21 ) ;
#34 = DIRECTION ( 'NONE',  ( 0.0000000000000000000, 0.0000000000000000000, 1.000000000000000000 ) ) ;
#35 = VERTEX_POINT ( 'NONE', #76 ) ;
#36 = DIRECTION ( 'NONE',  ( 1.000000000000000000, 0.0000000000000000000, 0.0000000000000000000 ) ) ;
#37 = SECURITY_CLASSIFICATION ( '', '', #116 ) ;
#38 = DATE_AND_TIME ( #172, #237 ) ;
#39 = ORIENTED_EDGE ( 'NONE', *, *, #191, .F. ) ;
#40 =( GEOMETRIC_REPRESENTATION_CONTEXT ( 3 ) GLOBAL_UNCERTAINTY_ASSIGNED_CONTEXT ( ( #126 ) ) GLOBAL_UNIT_ASSIGNED_CONTEXT ( ( #18, #74, #93 ) ) REPRESENTATION_CONTEXT ( 'NONE', 'WORKASPACE' ) );
#41 = ADVANCED_FACE ( 'NONE', ( #159 ), #121, .T. ) ;
#42 = EDGE_LOOP ( 'NONE', ( #135 ) ) ;
#43 = CIRCLE ( 'NONE', #165, 0.4499999999999999001 ) ;
#44 = CARTESIAN_POINT ( 'NONE',  ( 0.0000000000000000000, 0.0000000000000000000, 0.0000000000000000000 ) ) ;
#45 = EDGE_LOOP ( 'NONE', ( #162 ) ) ;
#46 = CARTESIAN_POINT ( 'NONE',  ( 1.326762908760390423E-13, -4.653657836759941941E-15, 38.00000000000000000 ) ) ;
#47 = EDGE_CURVE ( 'NONE', #223, #223, #241, .T. ) ;
#48 = LOCAL_TIME ( 7, 36, 29.00000000000000000, #134 ) ;
#49 = DIRECTION ( 'NONE',  ( 1.000000000000000000, 0.0000000000000000000, -3.491481338843132961E-15 ) ) ;
#50 = APPROVAL ( #112, 'UNSPECIFIED' ) ;
#51 = DIRECTION ( 'NONE',  ( 3.491481338843133355E-15, -0.0000000000000000000, 1.000000000000000000 ) ) ;
#52 = APPROVAL_DATE_TIME ( #243, #16 ) ;
#53 = ADVANCED_FACE ( 'NONE', ( #104, #29 ), #110, .F. ) ;
#54 = VERTEX_POINT ( 'NONE', #95 ) ;
#55 = AXIS2_PLACEMENT_3D ( 'NONE', #44, #240, #174 ) ;
#56 = LOCAL_TIME ( 7, 36, 29.00000000000000000, #80 ) ;
#57 = DIRECTION ( 'NONE',  ( -3.491481338843133355E-15, 1.224646799147353207E-16, -1.000000000000000000 ) ) ;
#58 = PRODUCT_DEFINITION ( 'UNKNOWN', '', #84, #181 ) ;
#59 = APPROVAL_ROLE ( '' ) ;
#60 = AXIS2_PLACEMENT_3D ( 'NONE', #236, #127, #65 ) ;
#61 = PERSON_AND_ORGANIZATION_ROLE ( 'creator' ) ;
#62 = EDGE_LOOP ( 'NONE', ( #153 ) ) ;
#63 = ORIENTED_EDGE ( 'NONE', *, *, #108, .T. ) ;
#64 = APPROVAL_DATE_TIME ( #141, #50 ) ;
#65 = DIRECTION ( 'NONE',  ( 1.000000000000000000, 0.0000000000000000000, -3.469446951953622866E-15 ) ) ;
#66 = CARTESIAN_POINT ( 'NONE',  ( -6.413803915257457113E-31, 2.249659577954772199E-32, -1.836986451539393076E-16 ) ) ;
#67 = EDGE_LOOP ( 'NONE', ( #117 ) ) ;
#68 = CC_DESIGN_APPROVAL ( #16, ( #58 ) ) ;
#69 = PLANE ( 'NONE',  #176 ) ;
#70 = CARTESIAN_POINT ( 'NONE',  ( 0.0000000000000000000, 0.0000000000000000000, 0.0000000000000000000 ) ) ;
#71 = ADVANCED_FACE ( 'NONE', ( #218, #91 ), #178, .T. ) ;
#72 = PERSON ( 'UNSPECIFIED', 'UNSPECIFIED', 'UNSPECIFIED', ('UNSPECIFIED'), ('UNSPECIFIED'), ('UNSPECIFIED') ) ;
#73 = PERSON_AND_ORGANIZATION_ROLE ( 'creator' ) ;
#74 =( NAMED_UNIT ( * ) PLANE_ANGLE_UNIT ( ) SI_UNIT ( $, .RADIAN. ) );
#75 = CIRCLE ( 'NONE', #202, 0.4499999999999999001 ) ;
#76 = CARTESIAN_POINT ( 'NONE',  ( 0.5181483474218648855, 0.0000000000000000000, 1.417638090205026291 ) ) ;
#77 = CC_DESIGN_PERSON_AND_ORGANIZATION_ASSIGNMENT ( #81, #23, ( #84 ) ) ;
#78 = CALENDAR_DATE ( 2021, 10, 11 ) ;
#79 = ORIENTED_EDGE ( 'NONE', *, *, #179, .T. ) ;
#80 = COORDINATED_UNIVERSAL_TIME_OFFSET ( 1, 0, .AHEAD. ) ;
#81 = PERSON_AND_ORGANIZATION ( #72, #212 ) ;
#82 = DATE_TIME_ROLE ( 'classification_date' ) ;
#83 = EDGE_LOOP ( 'NONE', ( #28 ) ) ;
#84 = PRODUCT_DEFINITION_FORMATION_WITH_SPECIFIED_SOURCE ( 'ANY', '', #118, .NOT_KNOWN. ) ;
#85 = APPROVAL_PERSON_ORGANIZATION ( #7, #123, #139 ) ;
#86 = DATE_TIME_ROLE ( 'creation_date' ) ;
#87 = PRODUCT_DEFINITION_SHAPE ( 'NONE', 'NONE',  #58 ) ;
#88 = DIRECTION ( 'NONE',  ( -4.275831445896958607E-31, -1.000000000000000000, -1.224646799147353207E-16 ) ) ;
#89 = DIRECTION ( 'NONE',  ( 1.000000000000000000, 0.0000000000000000000, -3.491481338843133355E-15 ) ) ;
#90 = CARTESIAN_POINT ( 'NONE',  ( 1.774356271978930890E-14, 0.0000000000000000000, 5.081958343122193966 ) ) ;
#91 = FACE_OUTER_BOUND ( 'NONE', #140, .T. ) ;
#92 = FACE_OUTER_BOUND ( 'NONE', #62, .T. ) ;
#93 =( NAMED_UNIT ( * ) SI_UNIT ( $, .STERADIAN. ) SOLID_ANGLE_UNIT ( ) );
#94 = PERSON_AND_ORGANIZATION_ROLE ( 'design_owner' ) ;
#95 = CARTESIAN_POINT ( 'NONE',  ( 0.4499999999999999001, 0.0000000000000000000, -1.571166602479409615E-15 ) ) ;
#96 = EDGE_CURVE ( 'NONE', #33, #33, #43, .T. ) ;
#97 = VERTEX_POINT ( 'NONE', #149 ) ;
#98 = PERSON_AND_ORGANIZATION ( #72, #212 ) ;
#99 = CONICAL_SURFACE ( 'NONE', #130, 1.199999999999998845, 0.7853981633974450594 ) ;
#100 = PERSON_AND_ORGANIZATION ( #72, #212 ) ;
#101 = CC_DESIGN_DATE_AND_TIME_ASSIGNMENT ( #20, #86, ( #58 ) ) ;
#102 = EDGE_LOOP ( 'NONE', ( #10 ) ) ;
#103 = DIRECTION ( 'NONE',  ( -4.275831445896958607E-31, -1.000000000000000000, -1.224646799147353207E-16 ) ) ;
#104 = FACE_OUTER_BOUND ( 'NONE', #27, .T. ) ;
#105 = LOCAL_TIME ( 7, 36, 29.00000000000000000, #209 ) ;
#106 = DIRECTION ( 'NONE',  ( 3.491481338843133355E-15, -0.0000000000000000000, 1.000000000000000000 ) ) ;
#107 = DIRECTION ( 'NONE',  ( 3.491481338843133355E-15, -0.0000000000000000000, 1.000000000000000000 ) ) ;
#108 = EDGE_CURVE ( 'NONE', #35, #35, #22, .T. ) ;
#109 = DIRECTION ( 'NONE',  ( 4.275831445896958607E-31, 1.000000000000000000, 1.224646799147353207E-16 ) ) ;
#110 = TOROIDAL_SURFACE ( 'NONE', #235, 2.449999999999999734, 2.000000000000000000 ) ;
#111 = LOCAL_TIME ( 7, 36, 29.00000000000000000, #190 ) ;
#112 = APPROVAL_STATUS ( 'not_yet_approved' ) ;
#113 = EDGE_LOOP ( 'NONE', ( #194 ) ) ;
#114 = PERSON_AND_ORGANIZATION ( #72, #212 ) ;
#115 = CC_DESIGN_PERSON_AND_ORGANIZATION_ASSIGNMENT ( #169, #94, ( #118 ) ) ;
#116 = SECURITY_CLASSIFICATION_LEVEL ( 'unclassified' ) ;
#117 = ORIENTED_EDGE ( 'NONE', *, *, #108, .F. ) ;
#118 = PRODUCT ( '63689', '63689', '', ( #222 ) ) ;
#119 = AXIS2_PLACEMENT_3D ( 'NONE', #31, #221, #49 ) ;
#120 = DIRECTION ( 'NONE',  ( 3.491481338843133355E-15, -1.224646799147353207E-16, 1.000000000000000000 ) ) ;
#121 = PLANE ( 'NONE',  #138 ) ;
#122 = DIRECTION ( 'NONE',  ( -3.491481338843133355E-15, 1.224646799147353207E-16, -1.000000000000000000 ) ) ;
#123 = APPROVAL ( #210, 'UNSPECIFIED' ) ;
#124 = AXIS2_PLACEMENT_3D ( 'NONE', #70, #34, #36 ) ;
#125 = AXIS2_PLACEMENT_3D ( 'NONE', #46, #122, #199 ) ;
#126 = UNCERTAINTY_MEASURE_WITH_UNIT (LENGTH_MEASURE( 1.000000000000000082E-05 ), #18, 'distance_accuracy_value', 'NONE');
#127 = DIRECTION ( 'NONE',  ( 3.491481338843133355E-15, -0.0000000000000000000, 1.000000000000000000 ) ) ;
#128 = PLANE ( 'NONE',  #187 ) ;
#129 = PERSON_AND_ORGANIZATION ( #72, #212 ) ;
#130 = AXIS2_PLACEMENT_3D ( 'NONE', #167, #132, #131 ) ;
#131 = DIRECTION ( 'NONE',  ( 0.0000000000000000000, 1.000000000000000000, 0.0000000000000000000 ) ) ;
#132 = DIRECTION ( 'NONE',  ( -3.491481338843133355E-15, 1.224646799147353207E-16, -1.000000000000000000 ) ) ;
#133 = FACE_OUTER_BOUND ( 'NONE', #229, .T. ) ;
#134 = COORDINATED_UNIVERSAL_TIME_OFFSET ( 1, 0, .AHEAD. ) ;
#135 = ORIENTED_EDGE ( 'NONE', *, *, #242, .T. ) ;
#136 = EDGE_CURVE ( 'NONE', #54, #54, #25, .T. ) ;
#137 = EDGE_LOOP ( 'NONE', ( #63 ) ) ;
#138 = AXIS2_PLACEMENT_3D ( 'NONE', #195, #234, #103 ) ;
#139 = APPROVAL_ROLE ( '' ) ;
#140 = EDGE_LOOP ( 'NONE', ( #233 ) ) ;
#141 = DATE_AND_TIME ( #78, #111 ) ;
#142 = CARTESIAN_POINT ( 'NONE',  ( 3.142333204958817259E-15, 0.0000000000000000000, 0.8999999999999992450 ) ) ;
#143 = CARTESIAN_POINT ( 'NONE',  ( 4.949656937184074034E-15, 0.0000000000000000000, 1.417638090205028067 ) ) ;
#144 = DIRECTION ( 'NONE',  ( 3.491481338843133355E-15, -1.224646799147353207E-16, 1.000000000000000000 ) ) ;
#145 = DIRECTION ( 'NONE',  ( 3.491481338843133355E-15, -0.0000000000000000000, 1.000000000000000000 ) ) ;
#146 = FACE_OUTER_BOUND ( 'NONE', #6, .T. ) ;
#147 = APPLICATION_PROTOCOL_DEFINITION ( 'international standard', 'config_control_design', 1994, #171 ) ;
#148 = DIRECTION ( 'NONE',  ( -3.491481338843133355E-15, 1.224646799147353207E-16, -1.000000000000000000 ) ) ;
#149 = CARTESIAN_POINT ( 'NONE',  ( 0.4500000000000030087, 0.0000000000000000000, 0.8999999999999976907 ) ) ;
#150 = DIRECTION ( 'NONE',  ( 0.0000000000000000000, 1.000000000000000000, 0.0000000000000000000 ) ) ;
#151 = ADVANCED_FACE ( 'NONE', ( #30 ), #128, .F. ) ;
#152 = AXIS2_PLACEMENT_3D ( 'NONE', #90, #107, #161 ) ;
#153 = ORIENTED_EDGE ( 'NONE', *, *, #179, .F. ) ;
#154 = COORDINATED_UNIVERSAL_TIME_OFFSET ( 1, 0, .AHEAD. ) ;
#155 = APPROVAL_PERSON_ORGANIZATION ( #4, #16, #59 ) ;
#156 = CC_DESIGN_SECURITY_CLASSIFICATION ( #37, ( #84 ) ) ;
#157 = PERSON_AND_ORGANIZATION_ROLE ( 'classification_officer' ) ;
#158 = ORIENTED_EDGE ( 'NONE', *, *, #242, .F. ) ;
#159 = FACE_OUTER_BOUND ( 'NONE', #45, .T. ) ;
#160 = CLOSED_SHELL ( 'NONE', ( #3, #217, #206, #53, #71, #13 ) ) ;
#161 = DIRECTION ( 'NONE',  ( 1.000000000000000000, 0.0000000000000000000, -3.469446951953622866E-15 ) ) ;
#162 = ORIENTED_EDGE ( 'NONE', *, *, #191, .T. ) ;
#163 = CARTESIAN_POINT ( 'NONE',  ( 0.0000000000000000000, 0.0000000000000000000, 0.0000000000000000000 ) ) ;
#164 = EDGE_LOOP ( 'NONE', ( #39 ) ) ;
#165 = AXIS2_PLACEMENT_3D ( 'NONE', #142, #145, #215 ) ;
#166 = VERTEX_POINT ( 'NONE', #224 ) ;
#167 = CARTESIAN_POINT ( 'NONE',  ( 1.326762908760390423E-13, -4.653657836759941941E-15, 38.00000000000000000 ) ) ;
#168 = CARTESIAN_POINT ( 'NONE',  ( 1.326762908760390423E-13, 8.998558695971069014E-33, 38.00000000000000000 ) ) ;
#169 = PERSON_AND_ORGANIZATION ( #72, #212 ) ;
#170 = CC_DESIGN_PERSON_AND_ORGANIZATION_ASSIGNMENT ( #129, #73, ( #58 ) ) ;
#171 = APPLICATION_CONTEXT ( 'configuration controlled 3d designs of mechanical parts and assemblies' ) ;
#172 = CALENDAR_DATE ( 2021, 10, 11 ) ;
#173 = FACE_OUTER_BOUND ( 'NONE', #113, .T. ) ;
#174 = DIRECTION ( 'NONE',  ( 4.275831445896958607E-31, 1.000000000000000000, 1.224646799147352961E-16 ) ) ;
#175 = APPLICATION_CONTEXT ( 'configuration controlled 3d designs of mechanical parts and assemblies' ) ;
#176 = AXIS2_PLACEMENT_3D ( 'NONE', #11, #120, #88 ) ;
#177 = CARTESIAN_POINT ( 'NONE',  ( 3.142333204958818048E-15, 0.0000000000000000000, 0.8999999999999994671 ) ) ;
#178 = CONICAL_SURFACE ( 'NONE', #152, 1.499999999999996225, 0.2617993877991429130 ) ;
#179 = EDGE_CURVE ( 'NONE', #185, #185, #5, .T. ) ;
#180 = FACE_OUTER_BOUND ( 'NONE', #164, .T. ) ;
#181 = DESIGN_CONTEXT ( 'detailed design', #175, 'design' ) ;
#182 = DIRECTION ( 'NONE',  ( 1.000000000000000000, 0.0000000000000000000, -3.373073425510458853E-15 ) ) ;
#183 = CARTESIAN_POINT ( 'NONE',  ( 1.500000000000013989, 0.0000000000000000000, 5.081958343122188637 ) ) ;
#184 = MANIFOLD_SOLID_BREP ( 'Corps-Déplacer/Copier1[1]', #160 ) ;
#185 = VERTEX_POINT ( 'NONE', #1 ) ;
#186 = CALENDAR_DATE ( 2021, 10, 11 ) ;
#187 = AXIS2_PLACEMENT_3D ( 'NONE', #66, #144, #15 ) ;
#188 = CARTESIAN_POINT ( 'NONE',  ( 1.316288464743861212E-13, -4.616918432785521081E-15, 37.69999999999999574 ) ) ;
#189 = CC_DESIGN_DATE_AND_TIME_ASSIGNMENT ( #192, #82, ( #37 ) ) ;
#190 = COORDINATED_UNIVERSAL_TIME_OFFSET ( 1, 0, .AHEAD. ) ;
#191 = EDGE_CURVE ( 'NONE', #97, #97, #75, .T. ) ;
#192 = DATE_AND_TIME ( #232, #56 ) ;
#193 = APPROVAL_DATE_TIME ( #38, #123 ) ;
#194 = ORIENTED_EDGE ( 'NONE', *, *, #47, .T. ) ;
#195 = CARTESIAN_POINT ( 'NONE',  ( 3.142333204958818836E-15, -1.301042606982608526E-16, 0.8999999999999996891 ) ) ;
#196 = CARTESIAN_POINT ( 'NONE',  ( 3.142333204958817259E-15, 0.0000000000000000000, 0.8999999999999992450 ) ) ;
#197 = AXIS2_PLACEMENT_3D ( 'NONE', #163, #238, #17 ) ;
#198 = ADVANCED_FACE ( 'NONE', ( #146, #180 ), #219, .T. ) ;
#199 = DIRECTION ( 'NONE',  ( 0.0000000000000000000, 1.000000000000000000, 0.0000000000000000000 ) ) ;
#200 = PLANE ( 'NONE',  #208 ) ;
#201 = CALENDAR_DATE ( 2021, 10, 11 ) ;
#202 = AXIS2_PLACEMENT_3D ( 'NONE', #196, #106, #182 ) ;
#203 = CC_DESIGN_PERSON_AND_ORGANIZATION_ASSIGNMENT ( #100, #157, ( #37 ) ) ;
#204 = APPLICATION_PROTOCOL_DEFINITION ( 'international standard', 'config_control_design', 1994, #175 ) ;
#205 = FACE_BOUND ( 'NONE', #211, .T. ) ;
#206 = ADVANCED_FACE ( 'NONE', ( #92 ), #200, .F. ) ;
#207 = PRODUCT_RELATED_PRODUCT_CATEGORY ( 'detail', '', ( #118 ) ) ;
#208 = AXIS2_PLACEMENT_3D ( 'NONE', #168, #57, #109 ) ;
#209 = COORDINATED_UNIVERSAL_TIME_OFFSET ( 1, 0, .AHEAD. ) ;
#210 = APPROVAL_STATUS ( 'not_yet_approved' ) ;
#211 = EDGE_LOOP ( 'NONE', ( #79 ) ) ;
#212 = ORGANIZATION ( 'UNSPECIFIED', 'UNSPECIFIED', '' ) ;
#213 = ORIENTED_EDGE ( 'NONE', *, *, #136, .T. ) ;
#214 = CLOSED_SHELL ( 'NONE', ( #41, #198, #151 ) ) ;
#215 = DIRECTION ( 'NONE',  ( 1.000000000000000000, 0.0000000000000000000, -3.373073425510458853E-15 ) ) ;
#216 = DIRECTION ( 'NONE',  ( 1.000000000000000000, 0.0000000000000000000, -3.347928222888744221E-15 ) ) ;
#217 = ADVANCED_FACE ( 'NONE', ( #133, #205 ), #99, .T. ) ;
#218 = FACE_BOUND ( 'NONE', #137, .T. ) ;
#219 = CYLINDRICAL_SURFACE ( 'NONE', #119, 0.4499999999999999001 ) ;
#220 = APPROVAL_PERSON_ORGANIZATION ( #98, #50, #228 ) ;
#221 = DIRECTION ( 'NONE',  ( 3.491481338843133355E-15, -0.0000000000000000000, 1.000000000000000000 ) ) ;
#222 = MECHANICAL_CONTEXT ( 'NONE', #171, 'mechanical' ) ;
#223 = VERTEX_POINT ( 'NONE', #183 ) ;
#224 = CARTESIAN_POINT ( 'NONE',  ( 1.316288464743861212E-13, 1.499999999999994005, 37.69999999999999574 ) ) ;
#225 = APPROVAL_STATUS ( 'not_yet_approved' ) ;
#226 = CC_DESIGN_PERSON_AND_ORGANIZATION_ASSIGNMENT ( #114, #61, ( #84 ) ) ;
#227 = CC_DESIGN_APPROVAL ( #123, ( #37 ) ) ;
#228 = APPROVAL_ROLE ( '' ) ;
#229 = EDGE_LOOP ( 'NONE', ( #158 ) ) ;
#230 = AXIS2_PLACEMENT_3D ( 'NONE', #188, #148, #150 ) ;
#231 = CIRCLE ( 'NONE', #230, 1.499999999999998446 ) ;
#232 = CALENDAR_DATE ( 2021, 10, 11 ) ;
#233 = ORIENTED_EDGE ( 'NONE', *, *, #47, .F. ) ;
#234 = DIRECTION ( 'NONE',  ( 3.491481338843133355E-15, -1.224646799147353207E-16, 1.000000000000000000 ) ) ;
#235 = AXIS2_PLACEMENT_3D ( 'NONE', #177, #14, #89 ) ;
#236 = CARTESIAN_POINT ( 'NONE',  ( 1.774356271978930890E-14, 0.0000000000000000000, 5.081958343122193966 ) ) ;
#237 = LOCAL_TIME ( 7, 36, 29.00000000000000000, #154 ) ;
#238 = DIRECTION ( 'NONE',  ( 3.491481338843133355E-15, -0.0000000000000000000, 1.000000000000000000 ) ) ;
#239 = FACE_OUTER_BOUND ( 'NONE', #102, .T. ) ;
#240 = DIRECTION ( 'NONE',  ( -3.491481338843133355E-15, 1.224646799147353207E-16, -1.000000000000000000 ) ) ;
#241 = CIRCLE ( 'NONE', #60, 1.499999999999996225 ) ;
#242 = EDGE_CURVE ( 'NONE', #166, #166, #231, .T. ) ;
#243 = DATE_AND_TIME ( #186, #48 ) ;
ENDSEC;
END-ISO-10303-21;
