ISO-10303-21;
HEADER;
FILE_DESCRIPTION (( 'STEP AP203' ),
    '1' );
FILE_NAME ('63688.step',
    '2021-11-10T06:36:28',
    ( '' ),
    ( '' ),
    'SwSTEP 2.0',
    'SolidWorks 2019',
    '' );
FILE_SCHEMA (( 'CONFIG_CONTROL_DESIGN' ));
ENDSEC;

DATA;
#1 = VERTEX_POINT ( 'NONE', #114 ) ;
#2 = CALENDAR_DATE ( 2021, 10, 11 ) ;
#3 = APPROVAL_DATE_TIME ( #153, #194 ) ;
#4 = DATE_AND_TIME ( #86, #96 ) ;
#5 = APPROVAL_ROLE ( '' ) ;
#6 = AXIS2_PLACEMENT_3D ( 'NONE', #227, #44, #115 ) ;
#7 = AXIS2_PLACEMENT_3D ( 'NONE', #108, #164, #237 ) ;
#8 = FACE_OUTER_BOUND ( 'NONE', #126, .T. ) ;
#9 = EDGE_CURVE ( 'NONE', #99, #99, #142, .T. ) ;
#10 = EDGE_LOOP ( 'NONE', ( #33 ) ) ;
#11 = ORIENTED_EDGE ( 'NONE', *, *, #27, .T. ) ;
#12 = CARTESIAN_POINT ( 'NONE',  ( 1.789474829660318727E-14, 0.0000000000000000000, 5.125259613311417439 ) ) ;
#13 = EDGE_LOOP ( 'NONE', ( #180 ) ) ;
#14 = APPLICATION_CONTEXT ( 'configuration controlled 3d designs of mechanical parts and assemblies' ) ;
#15 = CARTESIAN_POINT ( 'NONE',  ( 2.967759138016661380E-15, 0.0000000000000000000, 0.8499999999999994227 ) ) ;
#16 = LOCAL_TIME ( 7, 36, 28.00000000000000000, #197 ) ;
#17 = DIRECTION ( 'NONE',  ( 1.000000000000000000, 0.0000000000000000000, -3.571489509364018040E-15 ) ) ;
#18 = AXIS2_PLACEMENT_3D ( 'NONE', #198, #200, #31 ) ;
#19 = DIRECTION ( 'NONE',  ( 3.491481338843133355E-15, -0.0000000000000000000, 1.000000000000000000 ) ) ;
#20 = ADVANCED_FACE ( 'NONE', ( #35 ), #54, .F. ) ;
#21 = CARTESIAN_POINT ( 'NONE',  ( 1.326762908760390423E-13, -4.653657836759941941E-15, 38.00000000000000000 ) ) ;
#22 = CLOSED_SHELL ( 'NONE', ( #100, #38, #20, #173, #78, #82 ) ) ;
#23 = PERSON_AND_ORGANIZATION_ROLE ( 'creator' ) ;
#24 = COORDINATED_UNIVERSAL_TIME_OFFSET ( 1, 0, .AHEAD. ) ;
#25 = APPROVAL_STATUS ( 'not_yet_approved' ) ;
#26 = PERSON_AND_ORGANIZATION ( #51, #53 ) ;
#27 = EDGE_CURVE ( 'NONE', #185, #185, #167, .T. ) ;
#28 = PERSON_AND_ORGANIZATION ( #51, #53 ) ;
#29 = EDGE_LOOP ( 'NONE', ( #163 ) ) ;
#30 = AXIS2_PLACEMENT_3D ( 'NONE', #149, #210, #131 ) ;
#31 = DIRECTION ( 'NONE',  ( 0.0000000000000000000, 1.000000000000000000, 0.0000000000000000000 ) ) ;
#32 = ORIENTED_EDGE ( 'NONE', *, *, #73, .F. ) ;
#33 = ORIENTED_EDGE ( 'NONE', *, *, #90, .T. ) ;
#34 = CIRCLE ( 'NONE', #205, 0.4249999999999996003 ) ;
#35 = FACE_OUTER_BOUND ( 'NONE', #238, .T. ) ;
#36 = AXIS2_PLACEMENT_3D ( 'NONE', #124, #236, #181 ) ;
#37 = CARTESIAN_POINT ( 'NONE',  ( 0.4250000000000025979, 0.0000000000000000000, 0.8499999999999976463 ) ) ;
#38 = ADVANCED_FACE ( 'NONE', ( #110, #55 ), #201, .T. ) ;
#39 = CARTESIAN_POINT ( 'NONE',  ( -6.413803915257457113E-31, 2.249659577954772199E-32, -1.836986451539393076E-16 ) ) ;
#40 = CC_DESIGN_DATE_AND_TIME_ASSIGNMENT ( #4, #138, ( #199 ) ) ;
#41 = DIRECTION ( 'NONE',  ( 0.0000000000000000000, 1.000000000000000000, 0.0000000000000000000 ) ) ;
#42 = DESIGN_CONTEXT ( 'detailed design', #14, 'design' ) ;
#43 = MANIFOLD_SOLID_BREP ( 'Corps-Déplacer/Copier1[1]', #22 ) ;
#44 = DIRECTION ( 'NONE',  ( -3.491481338843133355E-15, 1.224646799147353207E-16, -1.000000000000000000 ) ) ;
#45 =( NAMED_UNIT ( * ) SI_UNIT ( $, .STERADIAN. ) SOLID_ANGLE_UNIT ( ) );
#46 = PERSON_AND_ORGANIZATION ( #51, #53 ) ;
#47 = AXIS2_PLACEMENT_3D ( 'NONE', #15, #19, #98 ) ;
#48 = PERSON_AND_ORGANIZATION_ROLE ( 'design_owner' ) ;
#49 = PERSON_AND_ORGANIZATION_ROLE ( 'classification_officer' ) ;
#50 = EDGE_LOOP ( 'NONE', ( #91 ) ) ;
#51 = PERSON ( 'UNSPECIFIED', 'UNSPECIFIED', 'UNSPECIFIED', ('UNSPECIFIED'), ('UNSPECIFIED'), ('UNSPECIFIED') ) ;
#52 = EDGE_CURVE ( 'NONE', #1, #1, #67, .T. ) ;
#53 = ORGANIZATION ( 'UNSPECIFIED', 'UNSPECIFIED', '' ) ;
#54 = PLANE ( 'NONE',  #36 ) ;
#55 = FACE_BOUND ( 'NONE', #70, .T. ) ;
#56 = DIRECTION ( 'NONE',  ( 0.0000000000000000000, 1.000000000000000000, 0.0000000000000000000 ) ) ;
#57 = AXIS2_PLACEMENT_3D ( 'NONE', #145, #221, #128 ) ;
#58 = DIRECTION ( 'NONE',  ( 3.491481338843133355E-15, -0.0000000000000000000, 1.000000000000000000 ) ) ;
#59 = VERTEX_POINT ( 'NONE', #61 ) ;
#60 = CARTESIAN_POINT ( 'NONE',  ( 0.4931483474218648078, 0.0000000000000000000, 1.367638090205026469 ) ) ;
#61 = CARTESIAN_POINT ( 'NONE',  ( 1.326762908760390423E-13, 1.199999999999994182, 38.00000000000000000 ) ) ;
#62 = PRODUCT_DEFINITION_FORMATION_WITH_SPECIFIED_SOURCE ( 'ANY', '', #213, .NOT_KNOWN. ) ;
#63 = APPROVAL ( #65, 'UNSPECIFIED' ) ;
#64 = APPROVAL_ROLE ( '' ) ;
#65 = APPROVAL_STATUS ( 'not_yet_approved' ) ;
#66 = CIRCLE ( 'NONE', #136, 0.4249999999999998224 ) ;
#67 = CIRCLE ( 'NONE', #192, 1.499999999999996225 ) ;
#68 = ORIENTED_EDGE ( 'NONE', *, *, #90, .F. ) ;
#69 = DIRECTION ( 'NONE',  ( 3.491481338843133355E-15, -0.0000000000000000000, 1.000000000000000000 ) ) ;
#70 = EDGE_LOOP ( 'NONE', ( #111 ) ) ;
#71 = PRODUCT_RELATED_PRODUCT_CATEGORY ( 'detail', '', ( #213 ) ) ;
#72 = FACE_BOUND ( 'NONE', #183, .T. ) ;
#73 = EDGE_CURVE ( 'NONE', #79, #79, #119, .T. ) ;
#74 = EDGE_LOOP ( 'NONE', ( #11 ) ) ;
#75 = LOCAL_TIME ( 7, 36, 28.00000000000000000, #141 ) ;
#76 = DIRECTION ( 'NONE',  ( -3.491481338843133355E-15, 1.224646799147353207E-16, -1.000000000000000000 ) ) ;
#77 = VERTEX_POINT ( 'NONE', #151 ) ;
#78 = ADVANCED_FACE ( 'NONE', ( #72, #95 ), #107, .T. ) ;
#79 = VERTEX_POINT ( 'NONE', #37 ) ;
#80 = FACE_OUTER_BOUND ( 'NONE', #74, .T. ) ;
#81 = APPLICATION_PROTOCOL_DEFINITION ( 'international standard', 'config_control_design', 1994, #130 ) ;
#82 = ADVANCED_FACE ( 'NONE', ( #8 ), #206, .F. ) ;
#83 = PERSON_AND_ORGANIZATION ( #51, #53 ) ;
#84 = CC_DESIGN_SECURITY_CLASSIFICATION ( #199, ( #62 ) ) ;
#85 = PERSON_AND_ORGANIZATION_ROLE ( 'creator' ) ;
#86 = CALENDAR_DATE ( 2021, 10, 11 ) ;
#87 = CALENDAR_DATE ( 2021, 10, 11 ) ;
#88 = AXIS2_PLACEMENT_3D ( 'NONE', #39, #113, #168 ) ;
#89 = DIRECTION ( 'NONE',  ( 1.000000000000000000, 0.0000000000000000000, -3.491481338843133355E-15 ) ) ;
#90 = EDGE_CURVE ( 'NONE', #77, #77, #66, .T. ) ;
#91 = ORIENTED_EDGE ( 'NONE', *, *, #52, .F. ) ;
#92 = ORIENTED_EDGE ( 'NONE', *, *, #150, .T. ) ;
#93 = CLOSED_SHELL ( 'NONE', ( #234, #158, #161 ) ) ;
#94 = DIRECTION ( 'NONE',  ( 1.000000000000000000, 0.0000000000000000000, -3.469446951953622866E-15 ) ) ;
#95 = FACE_OUTER_BOUND ( 'NONE', #50, .T. ) ;
#96 = LOCAL_TIME ( 7, 36, 28.00000000000000000, #175 ) ;
#97 = PLANE ( 'NONE',  #88 ) ;
#98 = DIRECTION ( 'NONE',  ( 1.000000000000000000, 0.0000000000000000000, -3.491481338843132961E-15 ) ) ;
#99 = VERTEX_POINT ( 'NONE', #60 ) ;
#100 = ADVANCED_FACE ( 'NONE', ( #80, #152 ), #239, .T. ) ;
#101 = CIRCLE ( 'NONE', #178, 1.199999999999998845 ) ;
#102 = FACE_OUTER_BOUND ( 'NONE', #10, .T. ) ;
#103 = PERSON_AND_ORGANIZATION_ROLE ( 'design_supplier' ) ;
#104 = APPROVAL_DATE_TIME ( #177, #133 ) ;
#105 = APPROVAL_STATUS ( 'not_yet_approved' ) ;
#106 = EDGE_LOOP ( 'NONE', ( #68 ) ) ;
#107 = CONICAL_SURFACE ( 'NONE', #57, 1.499999999999996225, 0.2617993877991429685 ) ;
#108 = CARTESIAN_POINT ( 'NONE',  ( 2.967759138016660591E-15, 0.0000000000000000000, 0.8499999999999992006 ) ) ;
#109 = PRODUCT_DEFINITION ( 'UNKNOWN', '', #62, #42 ) ;
#110 = FACE_OUTER_BOUND ( 'NONE', #143, .T. ) ;
#111 = ORIENTED_EDGE ( 'NONE', *, *, #176, .T. ) ;
#112 = CARTESIAN_POINT ( 'NONE',  ( 2.967759138016662563E-15, -1.228762462150241728E-16, 0.8499999999999997558 ) ) ;
#113 = DIRECTION ( 'NONE',  ( 3.491481338843133355E-15, -1.224646799147353207E-16, 1.000000000000000000 ) ) ;
#114 = CARTESIAN_POINT ( 'NONE',  ( 1.500000000000014211, 0.0000000000000000000, 5.125259613311412110 ) ) ;
#115 = DIRECTION ( 'NONE',  ( 4.275831445896958607E-31, 1.000000000000000000, 1.224646799147353207E-16 ) ) ;
#116 = LOCAL_TIME ( 7, 36, 28.00000000000000000, #24 ) ;
#117 = MECHANICAL_CONTEXT ( 'NONE', #130, 'mechanical' ) ;
#118 = PRODUCT_DEFINITION_SHAPE ( 'NONE', 'NONE',  #109 ) ;
#119 = CIRCLE ( 'NONE', #7, 0.4249999999999996003 ) ;
#120 = PERSON_AND_ORGANIZATION ( #51, #53 ) ;
#121 = COORDINATED_UNIVERSAL_TIME_OFFSET ( 1, 0, .AHEAD. ) ;
#122 = SECURITY_CLASSIFICATION_LEVEL ( 'unclassified' ) ;
#123 = DATE_TIME_ROLE ( 'creation_date' ) ;
#124 = CARTESIAN_POINT ( 'NONE',  ( 1.326762908760390423E-13, 8.998558695971069014E-33, 38.00000000000000000 ) ) ;
#125 = APPROVAL_PERSON_ORGANIZATION ( #83, #133, #64 ) ;
#126 = EDGE_LOOP ( 'NONE', ( #32 ) ) ;
#127 = DIRECTION ( 'NONE',  ( 1.000000000000000000, 0.0000000000000000000, -3.517650388662563846E-15 ) ) ;
#128 = DIRECTION ( 'NONE',  ( 1.000000000000000000, 0.0000000000000000000, -3.469446951953622866E-15 ) ) ;
#129 = PLANE ( 'NONE',  #191 ) ;
#130 = APPLICATION_CONTEXT ( 'configuration controlled 3d designs of mechanical parts and assemblies' ) ;
#131 = DIRECTION ( 'NONE',  ( 1.000000000000000000, 0.0000000000000000000, -3.491481338843132961E-15 ) ) ;
#132 = UNCERTAINTY_MEASURE_WITH_UNIT (LENGTH_MEASURE( 1.000000000000000082E-05 ), #134, 'distance_accuracy_value', 'NONE');
#133 = APPROVAL ( #105, 'UNSPECIFIED' ) ;
#134 =( LENGTH_UNIT ( ) NAMED_UNIT ( * ) SI_UNIT ( .MILLI., .METRE. ) );
#135 =( NAMED_UNIT ( * ) PLANE_ANGLE_UNIT ( ) SI_UNIT ( $, .RADIAN. ) );
#136 = AXIS2_PLACEMENT_3D ( 'NONE', #222, #58, #89 ) ;
#137 = DIRECTION ( 'NONE',  ( 1.000000000000000000, 0.0000000000000000000, 0.0000000000000000000 ) ) ;
#138 = DATE_TIME_ROLE ( 'classification_date' ) ;
#139 = CC_DESIGN_PERSON_AND_ORGANIZATION_ASSIGNMENT ( #28, #49, ( #199 ) ) ;
#140 = APPROVAL_PERSON_ORGANIZATION ( #195, #194, #211 ) ;
#141 = COORDINATED_UNIVERSAL_TIME_OFFSET ( 1, 0, .AHEAD. ) ;
#142 = CIRCLE ( 'NONE', #188, 0.4931483474218600338 ) ;
#143 = EDGE_LOOP ( 'NONE', ( #235 ) ) ;
#144 = EDGE_LOOP ( 'NONE', ( #92 ) ) ;
#145 = CARTESIAN_POINT ( 'NONE',  ( 1.789474829660318727E-14, 0.0000000000000000000, 5.125259613311417439 ) ) ;
#146 = DIRECTION ( 'NONE',  ( -4.275831445896958607E-31, -1.000000000000000000, -1.224646799147353207E-16 ) ) ;
#147 = TOROIDAL_SURFACE ( 'NONE', #47, 2.425000000000000711, 2.000000000000000444 ) ;
#148 = CARTESIAN_POINT ( 'NONE',  ( 2.967759138016662563E-15, -1.228762462150241728E-16, 0.8499999999999997558 ) ) ;
#149 = CARTESIAN_POINT ( 'NONE',  ( -1.786038389295302186E-30, 0.0000000000000000000, -5.115417256925931626E-16 ) ) ;
#150 = EDGE_CURVE ( 'NONE', #225, #225, #34, .T. ) ;
#151 = CARTESIAN_POINT ( 'NONE',  ( 0.4249999999999998224, 0.0000000000000000000, -1.483879569008331084E-15 ) ) ;
#152 = FACE_OUTER_BOUND ( 'NONE', #29, .T. ) ;
#153 = DATE_AND_TIME ( #87, #116 ) ;
#154 = CC_DESIGN_APPROVAL ( #63, ( #199 ) ) ;
#155 = PERSON_AND_ORGANIZATION ( #51, #53 ) ;
#156 = CARTESIAN_POINT ( 'NONE',  ( 0.0000000000000000000, 0.0000000000000000000, 0.0000000000000000000 ) ) ;
#157 = CC_DESIGN_PERSON_AND_ORGANIZATION_ASSIGNMENT ( #46, #23, ( #62 ) ) ;
#158 = ADVANCED_FACE ( 'NONE', ( #102, #241 ), #169, .T. ) ;
#159 =( GEOMETRIC_REPRESENTATION_CONTEXT ( 3 ) GLOBAL_UNCERTAINTY_ASSIGNED_CONTEXT ( ( #132 ) ) GLOBAL_UNIT_ASSIGNED_CONTEXT ( ( #134, #135, #45 ) ) REPRESENTATION_CONTEXT ( 'NONE', 'WORKASPACE' ) );
#160 = EDGE_LOOP ( 'NONE', ( #216 ) ) ;
#161 = ADVANCED_FACE ( 'NONE', ( #209 ), #97, .F. ) ;
#162 = ORIENTED_EDGE ( 'NONE', *, *, #9, .T. ) ;
#163 = ORIENTED_EDGE ( 'NONE', *, *, #52, .T. ) ;
#164 = DIRECTION ( 'NONE',  ( 3.491481338843133355E-15, -0.0000000000000000000, 1.000000000000000000 ) ) ;
#165 = DIRECTION ( 'NONE',  ( 3.491481338843133355E-15, -1.224646799147353207E-16, 1.000000000000000000 ) ) ;
#166 = AXIS2_PLACEMENT_3D ( 'NONE', #156, #232, #137 ) ;
#167 = CIRCLE ( 'NONE', #230, 1.499999999999998446 ) ;
#168 = DIRECTION ( 'NONE',  ( -4.275831445896958607E-31, -1.000000000000000000, -1.224646799147353207E-16 ) ) ;
#169 = CYLINDRICAL_SURFACE ( 'NONE', #30, 0.4249999999999997113 ) ;
#170 = CARTESIAN_POINT ( 'NONE',  ( 1.316288464743861212E-13, 1.499999999999994005, 37.69999999999999574 ) ) ;
#171 = CC_DESIGN_APPROVAL ( #194, ( #109 ) ) ;
#172 = PERSON_AND_ORGANIZATION ( #51, #53 ) ;
#173 = ADVANCED_FACE ( 'NONE', ( #189, #224 ), #147, .F. ) ;
#174 = APPLICATION_PROTOCOL_DEFINITION ( 'international standard', 'config_control_design', 1994, #14 ) ;
#175 = COORDINATED_UNIVERSAL_TIME_OFFSET ( 1, 0, .AHEAD. ) ;
#176 = EDGE_CURVE ( 'NONE', #59, #59, #101, .T. ) ;
#177 = DATE_AND_TIME ( #193, #186 ) ;
#178 = AXIS2_PLACEMENT_3D ( 'NONE', #21, #76, #41 ) ;
#179 = CARTESIAN_POINT ( 'NONE',  ( 4.775082870241917366E-15, 0.0000000000000000000, 1.367638090205028245 ) ) ;
#180 = ORIENTED_EDGE ( 'NONE', *, *, #9, .F. ) ;
#181 = DIRECTION ( 'NONE',  ( 4.275831445896958607E-31, 1.000000000000000000, 1.224646799147353207E-16 ) ) ;
#182 = CC_DESIGN_DATE_AND_TIME_ASSIGNMENT ( #231, #123, ( #109 ) ) ;
#183 = EDGE_LOOP ( 'NONE', ( #162 ) ) ;
#184 = CARTESIAN_POINT ( 'NONE',  ( 1.316288464743861212E-13, -4.616918432785521081E-15, 37.69999999999999574 ) ) ;
#185 = VERTEX_POINT ( 'NONE', #170 ) ;
#186 = LOCAL_TIME ( 7, 36, 28.00000000000000000, #121 ) ;
#187 = ADVANCED_BREP_SHAPE_REPRESENTATION ( '63688', ( #43, #218, #166 ), #159 ) ;
#188 = AXIS2_PLACEMENT_3D ( 'NONE', #179, #69, #127 ) ;
#189 = FACE_OUTER_BOUND ( 'NONE', #217, .T. ) ;
#190 = CARTESIAN_POINT ( 'NONE',  ( 2.967759138016660591E-15, 0.0000000000000000000, 0.8499999999999992006 ) ) ;
#191 = AXIS2_PLACEMENT_3D ( 'NONE', #148, #223, #207 ) ;
#192 = AXIS2_PLACEMENT_3D ( 'NONE', #12, #204, #94 ) ;
#193 = CALENDAR_DATE ( 2021, 10, 11 ) ;
#194 = APPROVAL ( #25, 'UNSPECIFIED' ) ;
#195 = PERSON_AND_ORGANIZATION ( #51, #53 ) ;
#196 = SHAPE_DEFINITION_REPRESENTATION ( #118, #187 ) ;
#197 = COORDINATED_UNIVERSAL_TIME_OFFSET ( 1, 0, .AHEAD. ) ;
#198 = CARTESIAN_POINT ( 'NONE',  ( 1.326762908760390423E-13, -4.653657836759941941E-15, 38.00000000000000000 ) ) ;
#199 = SECURITY_CLASSIFICATION ( '', '', #122 ) ;
#200 = DIRECTION ( 'NONE',  ( -3.491481338843133355E-15, 1.224646799147353207E-16, -1.000000000000000000 ) ) ;
#201 = CONICAL_SURFACE ( 'NONE', #18, 1.199999999999998845, 0.7853981633974450594 ) ;
#202 = ORIENTED_EDGE ( 'NONE', *, *, #73, .T. ) ;
#203 = CC_DESIGN_PERSON_AND_ORGANIZATION_ASSIGNMENT ( #120, #85, ( #109 ) ) ;
#204 = DIRECTION ( 'NONE',  ( 3.491481338843133355E-15, -0.0000000000000000000, 1.000000000000000000 ) ) ;
#205 = AXIS2_PLACEMENT_3D ( 'NONE', #190, #208, #17 ) ;
#206 = PLANE ( 'NONE',  #243 ) ;
#207 = DIRECTION ( 'NONE',  ( -4.275831445896958607E-31, -1.000000000000000000, -1.224646799147353207E-16 ) ) ;
#208 = DIRECTION ( 'NONE',  ( 3.491481338843133355E-15, -0.0000000000000000000, 1.000000000000000000 ) ) ;
#209 = FACE_OUTER_BOUND ( 'NONE', #106, .T. ) ;
#210 = DIRECTION ( 'NONE',  ( 3.491481338843133355E-15, -0.0000000000000000000, 1.000000000000000000 ) ) ;
#211 = APPROVAL_ROLE ( '' ) ;
#212 = CC_DESIGN_APPROVAL ( #133, ( #62 ) ) ;
#213 = PRODUCT ( '63688', '63688', '', ( #117 ) ) ;
#214 = CALENDAR_DATE ( 2021, 10, 11 ) ;
#215 = APPROVAL_DATE_TIME ( #228, #63 ) ;
#216 = ORIENTED_EDGE ( 'NONE', *, *, #150, .F. ) ;
#217 = EDGE_LOOP ( 'NONE', ( #202 ) ) ;
#218 = MANIFOLD_SOLID_BREP ( 'Corps-Déplacer/Copier1[2]', #93 ) ;
#219 = CC_DESIGN_PERSON_AND_ORGANIZATION_ASSIGNMENT ( #155, #103, ( #62 ) ) ;
#220 = DIRECTION ( 'NONE',  ( -3.491481338843133355E-15, 1.224646799147353207E-16, -1.000000000000000000 ) ) ;
#221 = DIRECTION ( 'NONE',  ( 3.491481338843133355E-15, -0.0000000000000000000, 1.000000000000000000 ) ) ;
#222 = CARTESIAN_POINT ( 'NONE',  ( 0.0000000000000000000, 0.0000000000000000000, 0.0000000000000000000 ) ) ;
#223 = DIRECTION ( 'NONE',  ( 3.491481338843133355E-15, -1.224646799147353207E-16, 1.000000000000000000 ) ) ;
#224 = FACE_OUTER_BOUND ( 'NONE', #13, .T. ) ;
#225 = VERTEX_POINT ( 'NONE', #242 ) ;
#226 = CC_DESIGN_PERSON_AND_ORGANIZATION_ASSIGNMENT ( #26, #48, ( #213 ) ) ;
#227 = CARTESIAN_POINT ( 'NONE',  ( 0.0000000000000000000, 0.0000000000000000000, 0.0000000000000000000 ) ) ;
#228 = DATE_AND_TIME ( #2, #16 ) ;
#229 = APPROVAL_PERSON_ORGANIZATION ( #172, #63, #5 ) ;
#230 = AXIS2_PLACEMENT_3D ( 'NONE', #184, #220, #56 ) ;
#231 = DATE_AND_TIME ( #214, #75 ) ;
#232 = DIRECTION ( 'NONE',  ( 0.0000000000000000000, 0.0000000000000000000, 1.000000000000000000 ) ) ;
#233 = ORIENTED_EDGE ( 'NONE', *, *, #176, .F. ) ;
#234 = ADVANCED_FACE ( 'NONE', ( #240 ), #129, .T. ) ;
#235 = ORIENTED_EDGE ( 'NONE', *, *, #27, .F. ) ;
#236 = DIRECTION ( 'NONE',  ( -3.491481338843133355E-15, 1.224646799147353207E-16, -1.000000000000000000 ) ) ;
#237 = DIRECTION ( 'NONE',  ( 1.000000000000000000, 0.0000000000000000000, -3.571489509364018040E-15 ) ) ;
#238 = EDGE_LOOP ( 'NONE', ( #233 ) ) ;
#239 = CYLINDRICAL_SURFACE ( 'NONE', #6, 1.499999999999996225 ) ;
#240 = FACE_OUTER_BOUND ( 'NONE', #144, .T. ) ;
#241 = FACE_OUTER_BOUND ( 'NONE', #160, .T. ) ;
#242 = CARTESIAN_POINT ( 'NONE',  ( 0.4250000000000025979, 0.0000000000000000000, 0.8499999999999976463 ) ) ;
#243 = AXIS2_PLACEMENT_3D ( 'NONE', #112, #165, #146 ) ;
ENDSEC;
END-ISO-10303-21;
