ISO-10303-21;
HEADER;
FILE_DESCRIPTION (( 'STEP AP203' ),
    '1' );
FILE_NAME ('63687.step',
    '2021-11-10T06:36:27',
    ( '' ),
    ( '' ),
    'SwSTEP 2.0',
    'SolidWorks 2019',
    '' );
FILE_SCHEMA (( 'CONFIG_CONTROL_DESIGN' ));
ENDSEC;

DATA;
#1 = FACE_BOUND ( 'NONE', #17, .T. ) ;
#2 = CC_DESIGN_PERSON_AND_ORGANIZATION_ASSIGNMENT ( #29, #74, ( #81 ) ) ;
#3 = AXIS2_PLACEMENT_3D ( 'NONE', #144, #23, #148 ) ;
#4 = DIRECTION ( 'NONE',  ( 3.491481338843133355E-15, -0.0000000000000000000, 1.000000000000000000 ) ) ;
#5 = CARTESIAN_POINT ( 'NONE',  ( 1.804593387341707195E-14, 0.0000000000000000000, 5.168560883500643577 ) ) ;
#6 = DIRECTION ( 'NONE',  ( 1.000000000000000000, 0.0000000000000000000, -3.469446951953622866E-15 ) ) ;
#7 = PRODUCT ( '63687', '63687', '', ( #97 ) ) ;
#8 = SHAPE_DEFINITION_REPRESENTATION ( #160, #165 ) ;
#9 = APPROVAL_PERSON_ORGANIZATION ( #13, #85, #237 ) ;
#10 = CONICAL_SURFACE ( 'NONE', #128, 1.499999999999996225, 0.2617993877991429130 ) ;
#11 = SECURITY_CLASSIFICATION_LEVEL ( 'unclassified' ) ;
#12 = ADVANCED_FACE ( 'NONE', ( #1, #122 ), #10, .T. ) ;
#13 = PERSON_AND_ORGANIZATION ( #182, #91 ) ;
#14 = DIRECTION ( 'NONE',  ( 1.000000000000000000, 0.0000000000000000000, 0.0000000000000000000 ) ) ;
#15 = EDGE_LOOP ( 'NONE', ( #120 ) ) ;
#16 = DIRECTION ( 'NONE',  ( 0.0000000000000000000, 0.0000000000000000000, 1.000000000000000000 ) ) ;
#17 = EDGE_LOOP ( 'NONE', ( #96 ) ) ;
#18 = CARTESIAN_POINT ( 'NONE',  ( 1.326762908760390423E-13, 1.199999999999994182, 38.00000000000000000 ) ) ;
#19 = CC_DESIGN_APPROVAL ( #20, ( #100 ) ) ;
#20 = APPROVAL ( #152, 'UNSPECIFIED' ) ;
#21 = DIRECTION ( 'NONE',  ( 1.000000000000000000, 0.0000000000000000000, -3.491481338843133750E-15 ) ) ;
#22 = EDGE_CURVE ( 'NONE', #209, #209, #71, .T. ) ;
#23 = DIRECTION ( 'NONE',  ( 3.491481338843133355E-15, -0.0000000000000000000, 1.000000000000000000 ) ) ;
#24 = AXIS2_PLACEMENT_3D ( 'NONE', #5, #4, #6 ) ;
#25 = DIRECTION ( 'NONE',  ( -3.491481338843133355E-15, 1.224646799147353207E-16, -1.000000000000000000 ) ) ;
#26 = AXIS2_PLACEMENT_3D ( 'NONE', #27, #177, #104 ) ;
#27 = CARTESIAN_POINT ( 'NONE',  ( 1.326762908760390423E-13, -4.653657836759941941E-15, 38.00000000000000000 ) ) ;
#28 = FACE_OUTER_BOUND ( 'NONE', #34, .T. ) ;
#29 = PERSON_AND_ORGANIZATION ( #182, #91 ) ;
#30 =( NAMED_UNIT ( * ) PLANE_ANGLE_UNIT ( ) SI_UNIT ( $, .RADIAN. ) );
#31 = EDGE_LOOP ( 'NONE', ( #195 ) ) ;
#32 = COORDINATED_UNIVERSAL_TIME_OFFSET ( 1, 0, .AHEAD. ) ;
#33 = FACE_OUTER_BOUND ( 'NONE', #158, .T. ) ;
#34 = EDGE_LOOP ( 'NONE', ( #174 ) ) ;
#35 = EDGE_LOOP ( 'NONE', ( #139 ) ) ;
#36 = CC_DESIGN_DATE_AND_TIME_ASSIGNMENT ( #92, #112, ( #100 ) ) ;
#37 = CARTESIAN_POINT ( 'NONE',  ( 0.3999999999999999667, 0.0000000000000000000, -1.396592535537253342E-15 ) ) ;
#38 = DIRECTION ( 'NONE',  ( -3.491481338843133355E-15, 1.224646799147353207E-16, -1.000000000000000000 ) ) ;
#39 = PLANE ( 'NONE',  #138 ) ;
#40 = CYLINDRICAL_SURFACE ( 'NONE', #227, 1.499999999999996225 ) ;
#41 = FACE_OUTER_BOUND ( 'NONE', #35, .T. ) ;
#42 = PRODUCT_RELATED_PRODUCT_CATEGORY ( 'detail', '', ( #7 ) ) ;
#43 = CARTESIAN_POINT ( 'NONE',  ( 1.326762908760390423E-13, -4.653657836759941941E-15, 38.00000000000000000 ) ) ;
#44 = AXIS2_PLACEMENT_3D ( 'NONE', #134, #16, #14 ) ;
#45 = TOROIDAL_SURFACE ( 'NONE', #229, 2.399999999999999911, 2.000000000000000000 ) ;
#46 = CARTESIAN_POINT ( 'NONE',  ( 0.0000000000000000000, 0.0000000000000000000, 0.0000000000000000000 ) ) ;
#47 = PRODUCT_DEFINITION ( 'UNKNOWN', '', #81, #78 ) ;
#48 = EDGE_CURVE ( 'NONE', #193, #193, #179, .T. ) ;
#49 = MANIFOLD_SOLID_BREP ( 'Corps-Déplacer/Copier1[2]', #93 ) ;
#50 = PERSON_AND_ORGANIZATION_ROLE ( 'classification_officer' ) ;
#51 = PERSON_AND_ORGANIZATION ( #182, #91 ) ;
#52 = CALENDAR_DATE ( 2021, 10, 11 ) ;
#53 = CARTESIAN_POINT ( 'NONE',  ( 1.326762908760390423E-13, 8.998558695971069014E-33, 38.00000000000000000 ) ) ;
#54 = VERTEX_POINT ( 'NONE', #153 ) ;
#55 = ORIENTED_EDGE ( 'NONE', *, *, #48, .F. ) ;
#56 = CC_DESIGN_PERSON_AND_ORGANIZATION_ASSIGNMENT ( #101, #172, ( #7 ) ) ;
#57 = AXIS2_PLACEMENT_3D ( 'NONE', #53, #141, #75 ) ;
#58 = VERTEX_POINT ( 'NONE', #37 ) ;
#59 = LOCAL_TIME ( 7, 36, 27.00000000000000000, #94 ) ;
#60 = EDGE_LOOP ( 'NONE', ( #116 ) ) ;
#61 = PERSON_AND_ORGANIZATION ( #182, #91 ) ;
#62 = ADVANCED_FACE ( 'NONE', ( #28, #232 ), #45, .F. ) ;
#63 = DIRECTION ( 'NONE',  ( 1.000000000000000000, 0.0000000000000000000, -3.469446951953622866E-15 ) ) ;
#64 = CARTESIAN_POINT ( 'NONE',  ( 2.793185071074504318E-15, 0.0000000000000000000, 0.7999999999999992673 ) ) ;
#65 = EDGE_LOOP ( 'NONE', ( #228 ) ) ;
#66 = DIRECTION ( 'NONE',  ( 1.000000000000000000, 0.0000000000000000000, -3.523657060577891777E-15 ) ) ;
#67 = DIRECTION ( 'NONE',  ( 4.275831445896958607E-31, 1.000000000000000000, 1.224646799147353207E-16 ) ) ;
#68 = CC_DESIGN_APPROVAL ( #85, ( #81 ) ) ;
#69 = DIRECTION ( 'NONE',  ( 3.491481338843133355E-15, -1.224646799147353207E-16, 1.000000000000000000 ) ) ;
#70 = ADVANCED_FACE ( 'NONE', ( #103, #84 ), #219, .T. ) ;
#71 = CIRCLE ( 'NONE', #169, 1.499999999999998446 ) ;
#72 = APPROVAL_DATE_TIME ( #170, #85 ) ;
#73 = PLANE ( 'NONE',  #57 ) ;
#74 = PERSON_AND_ORGANIZATION_ROLE ( 'creator' ) ;
#75 = DIRECTION ( 'NONE',  ( 4.275831445896958607E-31, 1.000000000000000000, 1.224646799147353207E-16 ) ) ;
#76 = ORIENTED_EDGE ( 'NONE', *, *, #48, .T. ) ;
#77 = DIRECTION ( 'NONE',  ( 0.0000000000000000000, 1.000000000000000000, 0.0000000000000000000 ) ) ;
#78 = DESIGN_CONTEXT ( 'detailed design', #106, 'design' ) ;
#79 = AXIS2_PLACEMENT_3D ( 'NONE', #46, #147, #130 ) ;
#80 = CARTESIAN_POINT ( 'NONE',  ( 1.500000000000014211, 0.0000000000000000000, 5.168560883500638248 ) ) ;
#81 = PRODUCT_DEFINITION_FORMATION_WITH_SPECIFIED_SOURCE ( 'ANY', '', #7, .NOT_KNOWN. ) ;
#82 = ORIENTED_EDGE ( 'NONE', *, *, #133, .F. ) ;
#83 = DIRECTION ( 'NONE',  ( 1.000000000000000000, 0.0000000000000000000, -3.491481338843133750E-15 ) ) ;
#84 = FACE_OUTER_BOUND ( 'NONE', #98, .T. ) ;
#85 = APPROVAL ( #149, 'UNSPECIFIED' ) ;
#86 = PLANE ( 'NONE',  #159 ) ;
#87 = PLANE ( 'NONE',  #199 ) ;
#88 = APPLICATION_CONTEXT ( 'configuration controlled 3d designs of mechanical parts and assemblies' ) ;
#89 = ADVANCED_FACE ( 'NONE', ( #163 ), #39, .T. ) ;
#90 = AXIS2_PLACEMENT_3D ( 'NONE', #123, #164, #196 ) ;
#91 = ORGANIZATION ( 'UNSPECIFIED', 'UNSPECIFIED', '' ) ;
#92 = DATE_AND_TIME ( #224, #214 ) ;
#93 = CLOSED_SHELL ( 'NONE', ( #89, #70, #194 ) ) ;
#94 = COORDINATED_UNIVERSAL_TIME_OFFSET ( 1, 0, .AHEAD. ) ;
#95 = CARTESIAN_POINT ( 'NONE',  ( 1.316288464743861212E-13, 1.499999999999994005, 37.69999999999999574 ) ) ;
#96 = ORIENTED_EDGE ( 'NONE', *, *, #108, .T. ) ;
#97 = MECHANICAL_CONTEXT ( 'NONE', #88, 'mechanical' ) ;
#98 = EDGE_LOOP ( 'NONE', ( #161 ) ) ;
#99 = APPLICATION_PROTOCOL_DEFINITION ( 'international standard', 'config_control_design', 1994, #88 ) ;
#100 = SECURITY_CLASSIFICATION ( '', '', #11 ) ;
#101 = PERSON_AND_ORGANIZATION ( #182, #91 ) ;
#102 = DIRECTION ( 'NONE',  ( 3.491481338843133355E-15, -0.0000000000000000000, 1.000000000000000000 ) ) ;
#103 = FACE_OUTER_BOUND ( 'NONE', #65, .T. ) ;
#104 = DIRECTION ( 'NONE',  ( 0.0000000000000000000, 1.000000000000000000, 0.0000000000000000000 ) ) ;
#105 = DIRECTION ( 'NONE',  ( 3.491481338843133355E-15, -0.0000000000000000000, 1.000000000000000000 ) ) ;
#106 = APPLICATION_CONTEXT ( 'configuration controlled 3d designs of mechanical parts and assemblies' ) ;
#107 = DIRECTION ( 'NONE',  ( 3.491481338843133355E-15, -1.224646799147353207E-16, 1.000000000000000000 ) ) ;
#108 = EDGE_CURVE ( 'NONE', #121, #121, #218, .T. ) ;
#109 = APPROVAL_PERSON_ORGANIZATION ( #187, #20, #154 ) ;
#110 = AXIS2_PLACEMENT_3D ( 'NONE', #43, #129, #77 ) ;
#111 = APPROVAL_PERSON_ORGANIZATION ( #135, #213, #230 ) ;
#112 = DATE_TIME_ROLE ( 'classification_date' ) ;
#113 = EDGE_CURVE ( 'NONE', #115, #115, #137, .T. ) ;
#114 = DATE_AND_TIME ( #52, #146 ) ;
#115 = VERTEX_POINT ( 'NONE', #80 ) ;
#116 = ORIENTED_EDGE ( 'NONE', *, *, #204, .F. ) ;
#117 = APPROVAL_DATE_TIME ( #114, #20 ) ;
#118 = DATE_AND_TIME ( #205, #185 ) ;
#119 = UNCERTAINTY_MEASURE_WITH_UNIT (LENGTH_MEASURE( 1.000000000000000082E-05 ), #239, 'distance_accuracy_value', 'NONE');
#120 = ORIENTED_EDGE ( 'NONE', *, *, #113, .T. ) ;
#121 = VERTEX_POINT ( 'NONE', #191 ) ;
#122 = FACE_OUTER_BOUND ( 'NONE', #31, .T. ) ;
#123 = CARTESIAN_POINT ( 'NONE',  ( 2.793185071074504318E-15, 0.0000000000000000000, 0.7999999999999992673 ) ) ;
#124 = CARTESIAN_POINT ( 'NONE',  ( 2.793185071074506290E-15, -1.156482317317874437E-16, 0.7999999999999998224 ) ) ;
#125 = CC_DESIGN_DATE_AND_TIME_ASSIGNMENT ( #240, #222, ( #47 ) ) ;
#126 = CARTESIAN_POINT ( 'NONE',  ( 0.0000000000000000000, 0.0000000000000000000, 0.0000000000000000000 ) ) ;
#127 = CIRCLE ( 'NONE', #79, 0.3999999999999999667 ) ;
#128 = AXIS2_PLACEMENT_3D ( 'NONE', #231, #102, #63 ) ;
#129 = DIRECTION ( 'NONE',  ( -3.491481338843133355E-15, 1.224646799147353207E-16, -1.000000000000000000 ) ) ;
#130 = DIRECTION ( 'NONE',  ( 1.000000000000000000, 0.0000000000000000000, -3.491481338843133750E-15 ) ) ;
#131 = CC_DESIGN_PERSON_AND_ORGANIZATION_ASSIGNMENT ( #61, #175, ( #47 ) ) ;
#132 = LOCAL_TIME ( 7, 36, 27.00000000000000000, #32 ) ;
#133 = EDGE_CURVE ( 'NONE', #157, #157, #200, .T. ) ;
#134 = CARTESIAN_POINT ( 'NONE',  ( 0.0000000000000000000, 0.0000000000000000000, 0.0000000000000000000 ) ) ;
#135 = PERSON_AND_ORGANIZATION ( #182, #91 ) ;
#136 = EDGE_LOOP ( 'NONE', ( #226 ) ) ;
#137 = CIRCLE ( 'NONE', #24, 1.499999999999996225 ) ;
#138 = AXIS2_PLACEMENT_3D ( 'NONE', #124, #203, #178 ) ;
#139 = ORIENTED_EDGE ( 'NONE', *, *, #22, .T. ) ;
#140 = MANIFOLD_SOLID_BREP ( 'Corps-Déplacer/Copier1[1]', #207 ) ;
#141 = DIRECTION ( 'NONE',  ( -3.491481338843133355E-15, 1.224646799147353207E-16, -1.000000000000000000 ) ) ;
#142 = CC_DESIGN_PERSON_AND_ORGANIZATION_ASSIGNMENT ( #51, #50, ( #100 ) ) ;
#143 = EDGE_LOOP ( 'NONE', ( #208 ) ) ;
#144 = CARTESIAN_POINT ( 'NONE',  ( 4.600508803299760698E-15, 0.0000000000000000000, 1.317638090205028201 ) ) ;
#145 = DIRECTION ( 'NONE',  ( 0.0000000000000000000, 1.000000000000000000, 0.0000000000000000000 ) ) ;
#146 = LOCAL_TIME ( 7, 36, 27.00000000000000000, #236 ) ;
#147 = DIRECTION ( 'NONE',  ( 3.491481338843133355E-15, -0.0000000000000000000, 1.000000000000000000 ) ) ;
#148 = DIRECTION ( 'NONE',  ( 1.000000000000000000, 0.0000000000000000000, -3.705499518539592111E-15 ) ) ;
#149 = APPROVAL_STATUS ( 'not_yet_approved' ) ;
#150 = COORDINATED_UNIVERSAL_TIME_OFFSET ( 1, 0, .AHEAD. ) ;
#151 = EDGE_CURVE ( 'NONE', #54, #54, #189, .T. ) ;
#152 = APPROVAL_STATUS ( 'not_yet_approved' ) ;
#153 = CARTESIAN_POINT ( 'NONE',  ( 0.4000000000000025757, 0.0000000000000000000, 0.7999999999999978240 ) ) ;
#154 = APPROVAL_ROLE ( '' ) ;
#155 =( NAMED_UNIT ( * ) SI_UNIT ( $, .STERADIAN. ) SOLID_ANGLE_UNIT ( ) );
#156 = EDGE_LOOP ( 'NONE', ( #76 ) ) ;
#157 = VERTEX_POINT ( 'NONE', #188 ) ;
#158 = EDGE_LOOP ( 'NONE', ( #55 ) ) ;
#159 = AXIS2_PLACEMENT_3D ( 'NONE', #166, #69, #234 ) ;
#160 = PRODUCT_DEFINITION_SHAPE ( 'NONE', 'NONE',  #47 ) ;
#161 = ORIENTED_EDGE ( 'NONE', *, *, #151, .F. ) ;
#162 = ADVANCED_FACE ( 'NONE', ( #212 ), #87, .F. ) ;
#163 = FACE_OUTER_BOUND ( 'NONE', #143, .T. ) ;
#164 = DIRECTION ( 'NONE',  ( 3.491481338843133355E-15, -0.0000000000000000000, 1.000000000000000000 ) ) ;
#165 = ADVANCED_BREP_SHAPE_REPRESENTATION ( '63687', ( #140, #49, #44 ), #217 ) ;
#166 = CARTESIAN_POINT ( 'NONE',  ( -6.413803915257457113E-31, 2.249659577954772199E-32, -1.836986451539393076E-16 ) ) ;
#167 = CARTESIAN_POINT ( 'NONE',  ( 2.793185071074506290E-15, -1.156482317317874437E-16, 0.7999999999999998224 ) ) ;
#168 = CC_DESIGN_PERSON_AND_ORGANIZATION_ASSIGNMENT ( #220, #221, ( #81 ) ) ;
#169 = AXIS2_PLACEMENT_3D ( 'NONE', #176, #38, #145 ) ;
#170 = DATE_AND_TIME ( #190, #132 ) ;
#171 = CALENDAR_DATE ( 2021, 10, 11 ) ;
#172 = PERSON_AND_ORGANIZATION_ROLE ( 'design_owner' ) ;
#173 = APPROVAL_STATUS ( 'not_yet_approved' ) ;
#174 = ORIENTED_EDGE ( 'NONE', *, *, #133, .T. ) ;
#175 = PERSON_AND_ORGANIZATION_ROLE ( 'creator' ) ;
#176 = CARTESIAN_POINT ( 'NONE',  ( 1.316288464743861212E-13, -4.616918432785521081E-15, 37.69999999999999574 ) ) ;
#177 = DIRECTION ( 'NONE',  ( -3.491481338843133355E-15, 1.224646799147353207E-16, -1.000000000000000000 ) ) ;
#178 = DIRECTION ( 'NONE',  ( -4.275831445896958607E-31, -1.000000000000000000, -1.224646799147353207E-16 ) ) ;
#179 = CIRCLE ( 'NONE', #26, 1.199999999999998845 ) ;
#180 = FACE_OUTER_BOUND ( 'NONE', #60, .T. ) ;
#181 = CARTESIAN_POINT ( 'NONE',  ( 2.793185071074505107E-15, 0.0000000000000000000, 0.7999999999999994893 ) ) ;
#182 = PERSON ( 'UNSPECIFIED', 'UNSPECIFIED', 'UNSPECIFIED', ('UNSPECIFIED'), ('UNSPECIFIED'), ('UNSPECIFIED') ) ;
#183 = ADVANCED_FACE ( 'NONE', ( #41, #211 ), #40, .T. ) ;
#184 = AXIS2_PLACEMENT_3D ( 'NONE', #64, #233, #66 ) ;
#185 = LOCAL_TIME ( 7, 36, 27.00000000000000000, #206 ) ;
#186 = AXIS2_PLACEMENT_3D ( 'NONE', #198, #105, #83 ) ;
#187 = PERSON_AND_ORGANIZATION ( #182, #91 ) ;
#188 = CARTESIAN_POINT ( 'NONE',  ( 0.4000000000000025757, 0.0000000000000000000, 0.7999999999999978240 ) ) ;
#189 = CIRCLE ( 'NONE', #184, 0.3999999999999997446 ) ;
#190 = CALENDAR_DATE ( 2021, 10, 11 ) ;
#191 = CARTESIAN_POINT ( 'NONE',  ( 0.4681483474218643970, 0.0000000000000000000, 1.317638090205026424 ) ) ;
#192 = ORIENTED_EDGE ( 'NONE', *, *, #108, .F. ) ;
#193 = VERTEX_POINT ( 'NONE', #18 ) ;
#194 = ADVANCED_FACE ( 'NONE', ( #180 ), #86, .F. ) ;
#195 = ORIENTED_EDGE ( 'NONE', *, *, #113, .F. ) ;
#196 = DIRECTION ( 'NONE',  ( 1.000000000000000000, 0.0000000000000000000, -3.523657060577891777E-15 ) ) ;
#197 = DIRECTION ( 'NONE',  ( 3.491481338843133355E-15, -0.0000000000000000000, 1.000000000000000000 ) ) ;
#198 = CARTESIAN_POINT ( 'NONE',  ( -1.786038389295302186E-30, 0.0000000000000000000, -5.115417256925931626E-16 ) ) ;
#199 = AXIS2_PLACEMENT_3D ( 'NONE', #167, #107, #235 ) ;
#200 = CIRCLE ( 'NONE', #90, 0.3999999999999997446 ) ;
#201 = CC_DESIGN_APPROVAL ( #213, ( #47 ) ) ;
#202 = FACE_OUTER_BOUND ( 'NONE', #136, .T. ) ;
#203 = DIRECTION ( 'NONE',  ( 3.491481338843133355E-15, -1.224646799147353207E-16, 1.000000000000000000 ) ) ;
#204 = EDGE_CURVE ( 'NONE', #58, #58, #127, .T. ) ;
#205 = CALENDAR_DATE ( 2021, 10, 11 ) ;
#206 = COORDINATED_UNIVERSAL_TIME_OFFSET ( 1, 0, .AHEAD. ) ;
#207 = CLOSED_SHELL ( 'NONE', ( #183, #223, #238, #62, #12, #162 ) ) ;
#208 = ORIENTED_EDGE ( 'NONE', *, *, #151, .T. ) ;
#209 = VERTEX_POINT ( 'NONE', #95 ) ;
#210 = EDGE_LOOP ( 'NONE', ( #192 ) ) ;
#211 = FACE_OUTER_BOUND ( 'NONE', #15, .T. ) ;
#212 = FACE_OUTER_BOUND ( 'NONE', #242, .T. ) ;
#213 = APPROVAL ( #173, 'UNSPECIFIED' ) ;
#214 = LOCAL_TIME ( 7, 36, 27.00000000000000000, #150 ) ;
#215 = FACE_BOUND ( 'NONE', #156, .T. ) ;
#216 = CONICAL_SURFACE ( 'NONE', #110, 1.199999999999998845, 0.7853981633974450594 ) ;
#217 =( GEOMETRIC_REPRESENTATION_CONTEXT ( 3 ) GLOBAL_UNCERTAINTY_ASSIGNED_CONTEXT ( ( #119 ) ) GLOBAL_UNIT_ASSIGNED_CONTEXT ( ( #239, #30, #155 ) ) REPRESENTATION_CONTEXT ( 'NONE', 'WORKASPACE' ) );
#218 = CIRCLE ( 'NONE', #3, 0.4681483474218597896 ) ;
#219 = CYLINDRICAL_SURFACE ( 'NONE', #186, 0.3999999999999998557 ) ;
#220 = PERSON_AND_ORGANIZATION ( #182, #91 ) ;
#221 = PERSON_AND_ORGANIZATION_ROLE ( 'design_supplier' ) ;
#222 = DATE_TIME_ROLE ( 'creation_date' ) ;
#223 = ADVANCED_FACE ( 'NONE', ( #202, #215 ), #216, .T. ) ;
#224 = CALENDAR_DATE ( 2021, 10, 11 ) ;
#225 = APPLICATION_PROTOCOL_DEFINITION ( 'international standard', 'config_control_design', 1994, #106 ) ;
#226 = ORIENTED_EDGE ( 'NONE', *, *, #22, .F. ) ;
#227 = AXIS2_PLACEMENT_3D ( 'NONE', #126, #25, #67 ) ;
#228 = ORIENTED_EDGE ( 'NONE', *, *, #204, .T. ) ;
#229 = AXIS2_PLACEMENT_3D ( 'NONE', #181, #197, #21 ) ;
#230 = APPROVAL_ROLE ( '' ) ;
#231 = CARTESIAN_POINT ( 'NONE',  ( 1.804593387341707195E-14, 0.0000000000000000000, 5.168560883500643577 ) ) ;
#232 = FACE_OUTER_BOUND ( 'NONE', #210, .T. ) ;
#233 = DIRECTION ( 'NONE',  ( 3.491481338843133355E-15, -0.0000000000000000000, 1.000000000000000000 ) ) ;
#234 = DIRECTION ( 'NONE',  ( -4.275831445896958607E-31, -1.000000000000000000, -1.224646799147353207E-16 ) ) ;
#235 = DIRECTION ( 'NONE',  ( -4.275831445896958607E-31, -1.000000000000000000, -1.224646799147353207E-16 ) ) ;
#236 = COORDINATED_UNIVERSAL_TIME_OFFSET ( 1, 0, .AHEAD. ) ;
#237 = APPROVAL_ROLE ( '' ) ;
#238 = ADVANCED_FACE ( 'NONE', ( #33 ), #73, .F. ) ;
#239 =( LENGTH_UNIT ( ) NAMED_UNIT ( * ) SI_UNIT ( .MILLI., .METRE. ) );
#240 = DATE_AND_TIME ( #171, #59 ) ;
#241 = APPROVAL_DATE_TIME ( #118, #213 ) ;
#242 = EDGE_LOOP ( 'NONE', ( #82 ) ) ;
#243 = CC_DESIGN_SECURITY_CLASSIFICATION ( #100, ( #81 ) ) ;
ENDSEC;
END-ISO-10303-21;
