ISO-10303-21;
HEADER;
FILE_DESCRIPTION (( 'STEP AP203' ),
    '1' );
FILE_NAME ('63684.step',
    '2021-11-10T06:36:22',
    ( '' ),
    ( '' ),
    'SwSTEP 2.0',
    'SolidWorks 2019',
    '' );
FILE_SCHEMA (( 'CONFIG_CONTROL_DESIGN' ));
ENDSEC;

DATA;
#1 = CARTESIAN_POINT ( 'NONE',  ( 2.269462870248033920E-15, 0.0000000000000000000, 0.6499999999999992450 ) ) ;
#2 = DIRECTION ( 'NONE',  ( -3.491481338843133355E-15, 1.224646799147353207E-16, -1.000000000000000000 ) ) ;
#3 = DIRECTION ( 'NONE',  ( 3.491481338843133355E-15, -1.224646799147353207E-16, 1.000000000000000000 ) ) ;
#4 = COORDINATED_UNIVERSAL_TIME_OFFSET ( 1, 0, .AHEAD. ) ;
#5 = CC_DESIGN_DATE_AND_TIME_ASSIGNMENT ( #53, #14, ( #76 ) ) ;
#6 = CARTESIAN_POINT ( 'NONE',  ( 0.3250000000000020650, 0.0000000000000000000, 0.6499999999999981348 ) ) ;
#7 = ADVANCED_FACE ( 'NONE', ( #136, #180 ), #223, .F. ) ;
#8 =( NAMED_UNIT ( * ) SI_UNIT ( $, .STERADIAN. ) SOLID_ANGLE_UNIT ( ) );
#9 = CARTESIAN_POINT ( 'NONE',  ( 0.3249999999999997891, 0.0000000000000000000, -1.134731435124017552E-15 ) ) ;
#10 = VERTEX_POINT ( 'NONE', #27 ) ;
#11 = COORDINATED_UNIVERSAL_TIME_OFFSET ( 1, 0, .AHEAD. ) ;
#12 = PRODUCT ( '63684', '63684', '', ( #153 ) ) ;
#13 = AXIS2_PLACEMENT_3D ( 'NONE', #75, #148, #66 ) ;
#14 = DATE_TIME_ROLE ( 'creation_date' ) ;
#15 = SHAPE_DEFINITION_REPRESENTATION ( #121, #211 ) ;
#16 = EDGE_LOOP ( 'NONE', ( #72 ) ) ;
#17 = ORIENTED_EDGE ( 'NONE', *, *, #232, .T. ) ;
#18 = SECURITY_CLASSIFICATION ( '', '', #55 ) ;
#19 = CARTESIAN_POINT ( 'NONE',  ( 1.316288464743861212E-13, -4.616918432785521081E-15, 37.69999999999999574 ) ) ;
#20 = DIRECTION ( 'NONE',  ( -3.491481338843133355E-15, 1.224646799147353207E-16, -1.000000000000000000 ) ) ;
#21 = PLANE ( 'NONE',  #155 ) ;
#22 = DIRECTION ( 'NONE',  ( 0.0000000000000000000, 1.000000000000000000, 0.0000000000000000000 ) ) ;
#23 = EDGE_LOOP ( 'NONE', ( #54 ) ) ;
#24 = APPROVAL ( #139, 'UNSPECIFIED' ) ;
#25 = CARTESIAN_POINT ( 'NONE',  ( 1.326762908760390423E-13, -4.653657836759941941E-15, 38.00000000000000000 ) ) ;
#26 = CIRCLE ( 'NONE', #62, 0.3249999999999997891 ) ;
#27 = CARTESIAN_POINT ( 'NONE',  ( 1.500000000000014655, 0.0000000000000000000, 5.298464694068311331 ) ) ;
#28 = DIRECTION ( 'NONE',  ( -3.491481338843133355E-15, 1.224646799147353207E-16, -1.000000000000000000 ) ) ;
#29 = CARTESIAN_POINT ( 'NONE',  ( 1.849949060385871969E-14, 0.0000000000000000000, 5.298464694068316660 ) ) ;
#30 = CC_DESIGN_APPROVAL ( #119, ( #70 ) ) ;
#31 = CARTESIAN_POINT ( 'NONE',  ( 1.326762908760390423E-13, 1.199999999999994182, 38.00000000000000000 ) ) ;
#32 = EDGE_LOOP ( 'NONE', ( #184 ) ) ;
#33 = APPROVAL_ROLE ( '' ) ;
#34 = ORIENTED_EDGE ( 'NONE', *, *, #42, .T. ) ;
#35 = PERSON_AND_ORGANIZATION_ROLE ( 'creator' ) ;
#36 = ADVANCED_FACE ( 'NONE', ( #181, #133 ), #59, .T. ) ;
#37 = ORIENTED_EDGE ( 'NONE', *, *, #114, .F. ) ;
#38 = AXIS2_PLACEMENT_3D ( 'NONE', #69, #185, #168 ) ;
#39 = DIRECTION ( 'NONE',  ( -4.275831445896958607E-31, -1.000000000000000000, -1.224646799147353207E-16 ) ) ;
#40 = DIRECTION ( 'NONE',  ( 3.491481338843133355E-15, -0.0000000000000000000, 1.000000000000000000 ) ) ;
#41 = PLANE ( 'NONE',  #99 ) ;
#42 = EDGE_CURVE ( 'NONE', #106, #106, #227, .T. ) ;
#43 = AXIS2_PLACEMENT_3D ( 'NONE', #45, #117, #147 ) ;
#44 = CARTESIAN_POINT ( 'NONE',  ( 4.076786602473290695E-15, 0.0000000000000000000, 1.167638090205028067 ) ) ;
#45 = CARTESIAN_POINT ( 'NONE',  ( -6.413803915257457113E-31, 2.249659577954772199E-32, -1.836986451539393076E-16 ) ) ;
#46 = EDGE_CURVE ( 'NONE', #209, #209, #131, .T. ) ;
#47 = VERTEX_POINT ( 'NONE', #9 ) ;
#48 = PERSON_AND_ORGANIZATION ( #88, #167 ) ;
#49 =( NAMED_UNIT ( * ) PLANE_ANGLE_UNIT ( ) SI_UNIT ( $, .RADIAN. ) );
#50 = PERSON_AND_ORGANIZATION_ROLE ( 'design_owner' ) ;
#51 = CIRCLE ( 'NONE', #229, 1.499999999999998446 ) ;
#52 = CC_DESIGN_PERSON_AND_ORGANIZATION_ASSIGNMENT ( #169, #141, ( #76 ) ) ;
#53 = DATE_AND_TIME ( #154, #241 ) ;
#54 = ORIENTED_EDGE ( 'NONE', *, *, #46, .T. ) ;
#55 = SECURITY_CLASSIFICATION_LEVEL ( 'unclassified' ) ;
#56 = AXIS2_PLACEMENT_3D ( 'NONE', #101, #149, #165 ) ;
#57 = FACE_OUTER_BOUND ( 'NONE', #196, .T. ) ;
#58 = CC_DESIGN_APPROVAL ( #73, ( #18 ) ) ;
#59 = CYLINDRICAL_SURFACE ( 'NONE', #140, 1.499999999999996225 ) ;
#60 = FACE_BOUND ( 'NONE', #237, .T. ) ;
#61 = EDGE_LOOP ( 'NONE', ( #216 ) ) ;
#62 = AXIS2_PLACEMENT_3D ( 'NONE', #230, #207, #156 ) ;
#63 = FACE_OUTER_BOUND ( 'NONE', #130, .T. ) ;
#64 = ADVANCED_FACE ( 'NONE', ( #116, #60 ), #218, .T. ) ;
#65 = APPLICATION_PROTOCOL_DEFINITION ( 'international standard', 'config_control_design', 1994, #86 ) ;
#66 = DIRECTION ( 'NONE',  ( 4.275831445896958607E-31, 1.000000000000000000, 1.224646799147353207E-16 ) ) ;
#67 = APPROVAL_PERSON_ORGANIZATION ( #48, #24, #188 ) ;
#68 = VERTEX_POINT ( 'NONE', #205 ) ;
#69 = CARTESIAN_POINT ( 'NONE',  ( 0.0000000000000000000, 0.0000000000000000000, 0.0000000000000000000 ) ) ;
#70 = PRODUCT_DEFINITION_FORMATION_WITH_SPECIFIED_SOURCE ( 'ANY', '', #12, .NOT_KNOWN. ) ;
#71 = CALENDAR_DATE ( 2021, 10, 11 ) ;
#72 = ORIENTED_EDGE ( 'NONE', *, *, #138, .F. ) ;
#73 = APPROVAL ( #91, 'UNSPECIFIED' ) ;
#74 = FACE_OUTER_BOUND ( 'NONE', #219, .T. ) ;
#75 = CARTESIAN_POINT ( 'NONE',  ( 1.326762908760390423E-13, 8.998558695971069014E-33, 38.00000000000000000 ) ) ;
#76 = PRODUCT_DEFINITION ( 'UNKNOWN', '', #70, #160 ) ;
#77 = AXIS2_PLACEMENT_3D ( 'NONE', #202, #40, #224 ) ;
#78 = CYLINDRICAL_SURFACE ( 'NONE', #203, 0.3249999999999997891 ) ;
#79 = CARTESIAN_POINT ( 'NONE',  ( 2.269462870248035498E-15, -9.396418828207728103E-17, 0.6499999999999996891 ) ) ;
#80 = CC_DESIGN_PERSON_AND_ORGANIZATION_ASSIGNMENT ( #194, #35, ( #70 ) ) ;
#81 = CARTESIAN_POINT ( 'NONE',  ( 1.849949060385871969E-14, 0.0000000000000000000, 5.298464694068316660 ) ) ;
#82 = DATE_AND_TIME ( #187, #96 ) ;
#83 = FACE_BOUND ( 'NONE', #23, .T. ) ;
#84 = COORDINATED_UNIVERSAL_TIME_OFFSET ( 1, 0, .AHEAD. ) ;
#85 = VERTEX_POINT ( 'NONE', #104 ) ;
#86 = APPLICATION_CONTEXT ( 'configuration controlled 3d designs of mechanical parts and assemblies' ) ;
#87 = APPLICATION_PROTOCOL_DEFINITION ( 'international standard', 'config_control_design', 1994, #105 ) ;
#88 = PERSON ( 'UNSPECIFIED', 'UNSPECIFIED', 'UNSPECIFIED', ('UNSPECIFIED'), ('UNSPECIFIED'), ('UNSPECIFIED') ) ;
#89 = PERSON_AND_ORGANIZATION_ROLE ( 'classification_officer' ) ;
#90 = ADVANCED_FACE ( 'NONE', ( #57 ), #21, .T. ) ;
#91 = APPROVAL_STATUS ( 'not_yet_approved' ) ;
#92 = ORIENTED_EDGE ( 'NONE', *, *, #114, .T. ) ;
#93 = CLOSED_SHELL ( 'NONE', ( #36, #64, #199, #7, #240, #129 ) ) ;
#94 = PERSON_AND_ORGANIZATION ( #88, #167 ) ;
#95 = CALENDAR_DATE ( 2021, 10, 11 ) ;
#96 = LOCAL_TIME ( 7, 36, 22.00000000000000000, #4 ) ;
#97 = DIRECTION ( 'NONE',  ( 3.491481338843133355E-15, -0.0000000000000000000, 1.000000000000000000 ) ) ;
#98 = DIRECTION ( 'NONE',  ( 3.491481338843133355E-15, -0.0000000000000000000, 1.000000000000000000 ) ) ;
#99 = AXIS2_PLACEMENT_3D ( 'NONE', #150, #3, #39 ) ;
#100 = FACE_OUTER_BOUND ( 'NONE', #191, .T. ) ;
#101 = CARTESIAN_POINT ( 'NONE',  ( 0.0000000000000000000, 0.0000000000000000000, 0.0000000000000000000 ) ) ;
#102 = FACE_OUTER_BOUND ( 'NONE', #124, .T. ) ;
#103 = LOCAL_TIME ( 7, 36, 22.00000000000000000, #127 ) ;
#104 = CARTESIAN_POINT ( 'NONE',  ( 1.316288464743861212E-13, 1.499999999999994005, 37.69999999999999574 ) ) ;
#105 = APPLICATION_CONTEXT ( 'configuration controlled 3d designs of mechanical parts and assemblies' ) ;
#106 = VERTEX_POINT ( 'NONE', #6 ) ;
#107 = CC_DESIGN_DATE_AND_TIME_ASSIGNMENT ( #214, #193, ( #18 ) ) ;
#108 = CARTESIAN_POINT ( 'NONE',  ( 0.3931483474218638308, 0.0000000000000000000, 1.167638090205026735 ) ) ;
#109 = CC_DESIGN_SECURITY_CLASSIFICATION ( #18, ( #70 ) ) ;
#110 = ORIENTED_EDGE ( 'NONE', *, *, #173, .F. ) ;
#111 =( GEOMETRIC_REPRESENTATION_CONTEXT ( 3 ) GLOBAL_UNCERTAINTY_ASSIGNED_CONTEXT ( ( #217 ) ) GLOBAL_UNIT_ASSIGNED_CONTEXT ( ( #228, #49, #8 ) ) REPRESENTATION_CONTEXT ( 'NONE', 'WORKASPACE' ) );
#112 = DIRECTION ( 'NONE',  ( 3.491481338843133355E-15, -1.224646799147353207E-16, 1.000000000000000000 ) ) ;
#113 = CARTESIAN_POINT ( 'NONE',  ( 0.0000000000000000000, 0.0000000000000000000, 0.0000000000000000000 ) ) ;
#114 = EDGE_CURVE ( 'NONE', #47, #47, #152, .T. ) ;
#115 = CIRCLE ( 'NONE', #144, 1.499999999999996225 ) ;
#116 = FACE_OUTER_BOUND ( 'NONE', #16, .T. ) ;
#117 = DIRECTION ( 'NONE',  ( 3.491481338843133355E-15, -1.224646799147353207E-16, 1.000000000000000000 ) ) ;
#118 = DIRECTION ( 'NONE',  ( 3.491481338843133355E-15, -0.0000000000000000000, 1.000000000000000000 ) ) ;
#119 = APPROVAL ( #157, 'UNSPECIFIED' ) ;
#120 = VERTEX_POINT ( 'NONE', #31 ) ;
#121 = PRODUCT_DEFINITION_SHAPE ( 'NONE', 'NONE',  #76 ) ;
#122 = CC_DESIGN_APPROVAL ( #24, ( #76 ) ) ;
#123 = PERSON_AND_ORGANIZATION ( #88, #167 ) ;
#124 = EDGE_LOOP ( 'NONE', ( #238 ) ) ;
#125 = ADVANCED_FACE ( 'NONE', ( #100, #220 ), #78, .T. ) ;
#126 = APPROVAL_DATE_TIME ( #233, #73 ) ;
#127 = COORDINATED_UNIVERSAL_TIME_OFFSET ( 1, 0, .AHEAD. ) ;
#128 = EDGE_LOOP ( 'NONE', ( #110 ) ) ;
#129 = ADVANCED_FACE ( 'NONE', ( #102 ), #41, .F. ) ;
#130 = EDGE_LOOP ( 'NONE', ( #37 ) ) ;
#131 = CIRCLE ( 'NONE', #162, 0.3931483474218597784 ) ;
#132 = CARTESIAN_POINT ( 'NONE',  ( -1.786038389295302186E-30, 0.0000000000000000000, -5.115417256925931626E-16 ) ) ;
#133 = FACE_OUTER_BOUND ( 'NONE', #32, .T. ) ;
#134 = EDGE_LOOP ( 'NONE', ( #161 ) ) ;
#135 = AXIS2_PLACEMENT_3D ( 'NONE', #25, #28, #210 ) ;
#136 = FACE_OUTER_BOUND ( 'NONE', #213, .T. ) ;
#137 = MANIFOLD_SOLID_BREP ( 'Corps-Déplacer/Copier1[1]', #93 ) ;
#138 = EDGE_CURVE ( 'NONE', #85, #85, #51, .T. ) ;
#139 = APPROVAL_STATUS ( 'not_yet_approved' ) ;
#140 = AXIS2_PLACEMENT_3D ( 'NONE', #113, #20, #179 ) ;
#141 = PERSON_AND_ORGANIZATION_ROLE ( 'creator' ) ;
#142 = PERSON_AND_ORGANIZATION ( #88, #167 ) ;
#143 = PRODUCT_RELATED_PRODUCT_CATEGORY ( 'detail', '', ( #12 ) ) ;
#144 = AXIS2_PLACEMENT_3D ( 'NONE', #81, #97, #151 ) ;
#145 = ORIENTED_EDGE ( 'NONE', *, *, #221, .F. ) ;
#146 = ORIENTED_EDGE ( 'NONE', *, *, #232, .F. ) ;
#147 = DIRECTION ( 'NONE',  ( -4.275831445896958607E-31, -1.000000000000000000, -1.224646799147353207E-16 ) ) ;
#148 = DIRECTION ( 'NONE',  ( -3.491481338843133355E-15, 1.224646799147353207E-16, -1.000000000000000000 ) ) ;
#149 = DIRECTION ( 'NONE',  ( 3.491481338843133355E-15, -0.0000000000000000000, 1.000000000000000000 ) ) ;
#150 = CARTESIAN_POINT ( 'NONE',  ( 2.269462870248035498E-15, -9.396418828207728103E-17, 0.6499999999999996891 ) ) ;
#151 = DIRECTION ( 'NONE',  ( 1.000000000000000000, 0.0000000000000000000, -3.469446951953622866E-15 ) ) ;
#152 = CIRCLE ( 'NONE', #56, 0.3249999999999997891 ) ;
#153 = MECHANICAL_CONTEXT ( 'NONE', #105, 'mechanical' ) ;
#154 = CALENDAR_DATE ( 2021, 10, 11 ) ;
#155 = AXIS2_PLACEMENT_3D ( 'NONE', #79, #112, #222 ) ;
#156 = DIRECTION ( 'NONE',  ( 1.000000000000000000, 0.0000000000000000000, -3.336006684570784876E-15 ) ) ;
#157 = APPROVAL_STATUS ( 'not_yet_approved' ) ;
#158 = LOCAL_TIME ( 7, 36, 22.00000000000000000, #190 ) ;
#159 = CC_DESIGN_PERSON_AND_ORGANIZATION_ASSIGNMENT ( #142, #50, ( #12 ) ) ;
#160 = DESIGN_CONTEXT ( 'detailed design', #86, 'design' ) ;
#161 = ORIENTED_EDGE ( 'NONE', *, *, #138, .T. ) ;
#162 = AXIS2_PLACEMENT_3D ( 'NONE', #44, #98, #225 ) ;
#163 = PLANE ( 'NONE',  #13 ) ;
#164 = DIRECTION ( 'NONE',  ( 3.491481338843133355E-15, -0.0000000000000000000, 1.000000000000000000 ) ) ;
#165 = DIRECTION ( 'NONE',  ( 1.000000000000000000, 0.0000000000000000000, -3.491481338843133355E-15 ) ) ;
#166 = DIRECTION ( 'NONE',  ( 0.0000000000000000000, 1.000000000000000000, 0.0000000000000000000 ) ) ;
#167 = ORGANIZATION ( 'UNSPECIFIED', 'UNSPECIFIED', '' ) ;
#168 = DIRECTION ( 'NONE',  ( 1.000000000000000000, 0.0000000000000000000, 0.0000000000000000000 ) ) ;
#169 = PERSON_AND_ORGANIZATION ( #88, #167 ) ;
#170 = FACE_OUTER_BOUND ( 'NONE', #128, .T. ) ;
#171 = AXIS2_PLACEMENT_3D ( 'NONE', #243, #2, #22 ) ;
#172 = APPROVAL_ROLE ( '' ) ;
#173 = EDGE_CURVE ( 'NONE', #10, #10, #115, .T. ) ;
#174 = CLOSED_SHELL ( 'NONE', ( #90, #125, #189 ) ) ;
#175 = APPROVAL_DATE_TIME ( #239, #119 ) ;
#176 = LOCAL_TIME ( 7, 36, 22.00000000000000000, #11 ) ;
#177 = ORIENTED_EDGE ( 'NONE', *, *, #221, .T. ) ;
#178 = CIRCLE ( 'NONE', #135, 1.199999999999998845 ) ;
#179 = DIRECTION ( 'NONE',  ( 4.275831445896958607E-31, 1.000000000000000000, 1.224646799147353207E-16 ) ) ;
#180 = FACE_OUTER_BOUND ( 'NONE', #61, .T. ) ;
#181 = FACE_OUTER_BOUND ( 'NONE', #134, .T. ) ;
#182 = CC_DESIGN_PERSON_AND_ORGANIZATION_ASSIGNMENT ( #215, #89, ( #18 ) ) ;
#183 = DIRECTION ( 'NONE',  ( 1.000000000000000000, 0.0000000000000000000, -3.336006684570784876E-15 ) ) ;
#184 = ORIENTED_EDGE ( 'NONE', *, *, #173, .T. ) ;
#185 = DIRECTION ( 'NONE',  ( 0.0000000000000000000, 0.0000000000000000000, 1.000000000000000000 ) ) ;
#186 = APPROVAL_DATE_TIME ( #82, #24 ) ;
#187 = CALENDAR_DATE ( 2021, 10, 11 ) ;
#188 = APPROVAL_ROLE ( '' ) ;
#189 = ADVANCED_FACE ( 'NONE', ( #63 ), #204, .F. ) ;
#190 = COORDINATED_UNIVERSAL_TIME_OFFSET ( 1, 0, .AHEAD. ) ;
#191 = EDGE_LOOP ( 'NONE', ( #92 ) ) ;
#192 = APPROVAL_PERSON_ORGANIZATION ( #123, #119, #172 ) ;
#193 = DATE_TIME_ROLE ( 'classification_date' ) ;
#194 = PERSON_AND_ORGANIZATION ( #88, #167 ) ;
#195 = PERSON_AND_ORGANIZATION ( #88, #167 ) ;
#196 = EDGE_LOOP ( 'NONE', ( #177 ) ) ;
#197 = DIRECTION ( 'NONE',  ( -3.491481338843133355E-15, 1.224646799147353207E-16, -1.000000000000000000 ) ) ;
#198 = AXIS2_PLACEMENT_3D ( 'NONE', #1, #226, #183 ) ;
#199 = ADVANCED_FACE ( 'NONE', ( #74 ), #163, .F. ) ;
#200 = EDGE_LOOP ( 'NONE', ( #145 ) ) ;
#201 = DIRECTION ( 'NONE',  ( 1.000000000000000000, 0.0000000000000000000, -3.491481338843133355E-15 ) ) ;
#202 = CARTESIAN_POINT ( 'NONE',  ( 2.269462870248034709E-15, 0.0000000000000000000, 0.6499999999999994671 ) ) ;
#203 = AXIS2_PLACEMENT_3D ( 'NONE', #132, #164, #201 ) ;
#204 = PLANE ( 'NONE',  #43 ) ;
#205 = CARTESIAN_POINT ( 'NONE',  ( 0.3250000000000020650, 0.0000000000000000000, 0.6499999999999981348 ) ) ;
#206 = MANIFOLD_SOLID_BREP ( 'Corps-Déplacer/Copier1[2]', #174 ) ;
#207 = DIRECTION ( 'NONE',  ( 3.491481338843133355E-15, -0.0000000000000000000, 1.000000000000000000 ) ) ;
#208 = CONICAL_SURFACE ( 'NONE', #212, 1.499999999999996225, 0.2617993877991428575 ) ;
#209 = VERTEX_POINT ( 'NONE', #108 ) ;
#210 = DIRECTION ( 'NONE',  ( 0.0000000000000000000, 1.000000000000000000, 0.0000000000000000000 ) ) ;
#211 = ADVANCED_BREP_SHAPE_REPRESENTATION ( '63684', ( #137, #206, #38 ), #111 ) ;
#212 = AXIS2_PLACEMENT_3D ( 'NONE', #29, #118, #231 ) ;
#213 = EDGE_LOOP ( 'NONE', ( #34 ) ) ;
#214 = DATE_AND_TIME ( #236, #103 ) ;
#215 = PERSON_AND_ORGANIZATION ( #88, #167 ) ;
#216 = ORIENTED_EDGE ( 'NONE', *, *, #46, .F. ) ;
#217 = UNCERTAINTY_MEASURE_WITH_UNIT (LENGTH_MEASURE( 1.000000000000000082E-05 ), #228, 'distance_accuracy_value', 'NONE');
#218 = CONICAL_SURFACE ( 'NONE', #171, 1.199999999999998845, 0.7853981633974450594 ) ;
#219 = EDGE_LOOP ( 'NONE', ( #146 ) ) ;
#220 = FACE_OUTER_BOUND ( 'NONE', #200, .T. ) ;
#221 = EDGE_CURVE ( 'NONE', #68, #68, #26, .T. ) ;
#222 = DIRECTION ( 'NONE',  ( -4.275831445896958607E-31, -1.000000000000000000, -1.224646799147353207E-16 ) ) ;
#223 = TOROIDAL_SURFACE ( 'NONE', #77, 2.324999999999999734, 2.000000000000000000 ) ;
#224 = DIRECTION ( 'NONE',  ( 1.000000000000000000, 0.0000000000000000000, -3.491481338843133355E-15 ) ) ;
#225 = DIRECTION ( 'NONE',  ( 1.000000000000000000, 0.0000000000000000000, -3.309291811893458505E-15 ) ) ;
#226 = DIRECTION ( 'NONE',  ( 3.491481338843133355E-15, -0.0000000000000000000, 1.000000000000000000 ) ) ;
#227 = CIRCLE ( 'NONE', #198, 0.3249999999999997891 ) ;
#228 =( LENGTH_UNIT ( ) NAMED_UNIT ( * ) SI_UNIT ( .MILLI., .METRE. ) );
#229 = AXIS2_PLACEMENT_3D ( 'NONE', #19, #197, #166 ) ;
#230 = CARTESIAN_POINT ( 'NONE',  ( 2.269462870248033920E-15, 0.0000000000000000000, 0.6499999999999992450 ) ) ;
#231 = DIRECTION ( 'NONE',  ( 1.000000000000000000, 0.0000000000000000000, -3.469446951953622866E-15 ) ) ;
#232 = EDGE_CURVE ( 'NONE', #120, #120, #178, .T. ) ;
#233 = DATE_AND_TIME ( #71, #158 ) ;
#234 = CC_DESIGN_PERSON_AND_ORGANIZATION_ASSIGNMENT ( #195, #242, ( #70 ) ) ;
#235 = APPROVAL_PERSON_ORGANIZATION ( #94, #73, #33 ) ;
#236 = CALENDAR_DATE ( 2021, 10, 11 ) ;
#237 = EDGE_LOOP ( 'NONE', ( #17 ) ) ;
#238 = ORIENTED_EDGE ( 'NONE', *, *, #42, .F. ) ;
#239 = DATE_AND_TIME ( #95, #176 ) ;
#240 = ADVANCED_FACE ( 'NONE', ( #83, #170 ), #208, .T. ) ;
#241 = LOCAL_TIME ( 7, 36, 22.00000000000000000, #84 ) ;
#242 = PERSON_AND_ORGANIZATION_ROLE ( 'design_supplier' ) ;
#243 = CARTESIAN_POINT ( 'NONE',  ( 1.326762908760390423E-13, -4.653657836759941941E-15, 38.00000000000000000 ) ) ;
ENDSEC;
END-ISO-10303-21;
