ISO-10303-21;
HEADER;
FILE_DESCRIPTION (( 'STEP AP203' ),
    '1' );
FILE_NAME ('63683.step',
    '2021-11-10T06:36:19',
    ( '' ),
    ( '' ),
    'SwSTEP 2.0',
    'SolidWorks 2019',
    '' );
FILE_SCHEMA (( 'CONFIG_CONTROL_DESIGN' ));
ENDSEC;

DATA;
#1 = CC_DESIGN_APPROVAL ( #234, ( #189 ) ) ;
#2 = DIRECTION ( 'NONE',  ( 3.491481338843133355E-15, -0.0000000000000000000, 1.000000000000000000 ) ) ;
#3 = DIRECTION ( 'NONE',  ( 4.275831445896958607E-31, 1.000000000000000000, 1.224646799147353207E-16 ) ) ;
#4 = FACE_OUTER_BOUND ( 'NONE', #232, .T. ) ;
#5 = CC_DESIGN_DATE_AND_TIME_ASSIGNMENT ( #226, #124, ( #162 ) ) ;
#6 = EDGE_CURVE ( 'NONE', #73, #73, #235, .T. ) ;
#7 = FACE_OUTER_BOUND ( 'NONE', #231, .T. ) ;
#8 = DIRECTION ( 'NONE',  ( 3.491481338843133355E-15, -0.0000000000000000000, 1.000000000000000000 ) ) ;
#9 = DIRECTION ( 'NONE',  ( 4.275831445896958607E-31, 1.000000000000000000, 1.224646799147353207E-16 ) ) ;
#10 = AXIS2_PLACEMENT_3D ( 'NONE', #115, #128, #237 ) ;
#11 = DIRECTION ( 'NONE',  ( 1.000000000000000000, 0.0000000000000000000, 0.0000000000000000000 ) ) ;
#12 = APPROVAL_DATE_TIME ( #186, #23 ) ;
#13 = ORIENTED_EDGE ( 'NONE', *, *, #36, .F. ) ;
#14 = PERSON_AND_ORGANIZATION_ROLE ( 'design_owner' ) ;
#15 = APPROVAL_PERSON_ORGANIZATION ( #53, #23, #163 ) ;
#16 = DIRECTION ( 'NONE',  ( 0.0000000000000000000, 0.0000000000000000000, 1.000000000000000000 ) ) ;
#17 = DATE_AND_TIME ( #98, #209 ) ;
#18 = APPROVAL_DATE_TIME ( #222, #234 ) ;
#19 = DIRECTION ( 'NONE',  ( -3.491481338843133355E-15, 1.224646799147353207E-16, -1.000000000000000000 ) ) ;
#20 = CONICAL_SURFACE ( 'NONE', #130, 1.199999999999998845, 0.7853981633974450594 ) ;
#21 = DIRECTION ( 'NONE',  ( 3.491481338843133355E-15, -1.224646799147353207E-16, 1.000000000000000000 ) ) ;
#22 = COORDINATED_UNIVERSAL_TIME_OFFSET ( 1, 0, .AHEAD. ) ;
#23 = APPROVAL ( #94, 'UNSPECIFIED' ) ;
#24 = DIRECTION ( 'NONE',  ( -3.491481338843133355E-15, 1.224646799147353207E-16, -1.000000000000000000 ) ) ;
#25 = LOCAL_TIME ( 7, 36, 19.00000000000000000, #150 ) ;
#26 = MANIFOLD_SOLID_BREP ( 'Corps-Déplacer/Copier1[2]', #183 ) ;
#27 = CARTESIAN_POINT ( 'NONE',  ( 1.880186175748647643E-14, 0.0000000000000000000, 5.385067234446764495 ) ) ;
#28 = ORGANIZATION ( 'UNSPECIFIED', 'UNSPECIFIED', '' ) ;
#29 = ORIENTED_EDGE ( 'NONE', *, *, #180, .F. ) ;
#30 = VERTEX_POINT ( 'NONE', #76 ) ;
#31 = DIRECTION ( 'NONE',  ( -3.491481338843133355E-15, 1.224646799147353207E-16, -1.000000000000000000 ) ) ;
#32 = CALENDAR_DATE ( 2021, 10, 11 ) ;
#33 = DIRECTION ( 'NONE',  ( 1.000000000000000000, 0.0000000000000000000, -3.491481338843132961E-15 ) ) ;
#34 = PLANE ( 'NONE',  #70 ) ;
#35 = ORIENTED_EDGE ( 'NONE', *, *, #46, .F. ) ;
#36 = EDGE_CURVE ( 'NONE', #148, #148, #135, .T. ) ;
#37 = CARTESIAN_POINT ( 'NONE',  ( 1.326762908760390423E-13, -4.653657836759941941E-15, 38.00000000000000000 ) ) ;
#38 = AXIS2_PLACEMENT_3D ( 'NONE', #171, #43, #33 ) ;
#39 = PERSON_AND_ORGANIZATION_ROLE ( 'creator' ) ;
#40 = DIRECTION ( 'NONE',  ( 3.491481338843133355E-15, -0.0000000000000000000, 1.000000000000000000 ) ) ;
#41 = PERSON_AND_ORGANIZATION_ROLE ( 'classification_officer' ) ;
#42 = DIRECTION ( 'NONE',  ( -3.491481338843133355E-15, 1.224646799147353207E-16, -1.000000000000000000 ) ) ;
#43 = DIRECTION ( 'NONE',  ( 3.491481338843133355E-15, -0.0000000000000000000, 1.000000000000000000 ) ) ;
#44 = COORDINATED_UNIVERSAL_TIME_OFFSET ( 1, 0, .AHEAD. ) ;
#45 = PERSON ( 'UNSPECIFIED', 'UNSPECIFIED', 'UNSPECIFIED', ('UNSPECIFIED'), ('UNSPECIFIED'), ('UNSPECIFIED') ) ;
#46 = EDGE_CURVE ( 'NONE', #133, #133, #49, .T. ) ;
#47 = CARTESIAN_POINT ( 'NONE',  ( 1.920314736363720979E-15, 0.0000000000000000000, 0.5499999999999992673 ) ) ;
#48 = EDGE_CURVE ( 'NONE', #30, #30, #55, .T. ) ;
#49 = CIRCLE ( 'NONE', #68, 0.2750000000000000777 ) ;
#50 = ORIENTED_EDGE ( 'NONE', *, *, #79, .T. ) ;
#51 = LOCAL_TIME ( 7, 36, 19.00000000000000000, #44 ) ;
#52 = CC_DESIGN_PERSON_AND_ORGANIZATION_ASSIGNMENT ( #176, #39, ( #162 ) ) ;
#53 = PERSON_AND_ORGANIZATION ( #45, #28 ) ;
#54 = FACE_OUTER_BOUND ( 'NONE', #238, .T. ) ;
#55 = CIRCLE ( 'NONE', #203, 1.499999999999996225 ) ;
#56 = ORIENTED_EDGE ( 'NONE', *, *, #36, .T. ) ;
#57 = DIRECTION ( 'NONE',  ( 3.491481338843133355E-15, -0.0000000000000000000, 1.000000000000000000 ) ) ;
#58 = FACE_BOUND ( 'NONE', #182, .T. ) ;
#59 = FACE_OUTER_BOUND ( 'NONE', #161, .T. ) ;
#60 = CARTESIAN_POINT ( 'NONE',  ( 1.316288464743861212E-13, -4.616918432785521081E-15, 37.69999999999999574 ) ) ;
#61 = CALENDAR_DATE ( 2021, 10, 11 ) ;
#62 = PERSON_AND_ORGANIZATION_ROLE ( 'creator' ) ;
#63 = AXIS2_PLACEMENT_3D ( 'NONE', #65, #21, #142 ) ;
#64 = DATE_AND_TIME ( #211, #230 ) ;
#65 = CARTESIAN_POINT ( 'NONE',  ( 1.920314736363722951E-15, -7.950815931560387214E-17, 0.5499999999999998224 ) ) ;
#66 = ADVANCED_FACE ( 'NONE', ( #7, #215 ), #107, .T. ) ;
#67 = PLANE ( 'NONE',  #158 ) ;
#68 = AXIS2_PLACEMENT_3D ( 'NONE', #198, #8, #144 ) ;
#69 = ORIENTED_EDGE ( 'NONE', *, *, #6, .F. ) ;
#70 = AXIS2_PLACEMENT_3D ( 'NONE', #113, #75, #221 ) ;
#71 = CARTESIAN_POINT ( 'NONE',  ( 0.2750000000000000777, 0.0000000000000000000, -9.601573681818620671E-16 ) ) ;
#72 = ORIENTED_EDGE ( 'NONE', *, *, #134, .T. ) ;
#73 = VERTEX_POINT ( 'NONE', #127 ) ;
#74 = ORIENTED_EDGE ( 'NONE', *, *, #180, .T. ) ;
#75 = DIRECTION ( 'NONE',  ( 3.491481338843133355E-15, -1.224646799147353207E-16, 1.000000000000000000 ) ) ;
#76 = CARTESIAN_POINT ( 'NONE',  ( 1.500000000000015099, 0.0000000000000000000, 5.385067234446759166 ) ) ;
#77 = EDGE_LOOP ( 'NONE', ( #149 ) ) ;
#78 = EDGE_LOOP ( 'NONE', ( #72 ) ) ;
#79 = EDGE_CURVE ( 'NONE', #96, #96, #93, .T. ) ;
#80 = ADVANCED_FACE ( 'NONE', ( #103 ), #140, .T. ) ;
#81 = CONICAL_SURFACE ( 'NONE', #141, 1.499999999999996225, 0.2617993877991429130 ) ;
#82 = APPROVAL_DATE_TIME ( #17, #165 ) ;
#83 = EDGE_LOOP ( 'NONE', ( #69 ) ) ;
#84 = PERSON_AND_ORGANIZATION ( #45, #28 ) ;
#85 = CC_DESIGN_PERSON_AND_ORGANIZATION_ASSIGNMENT ( #118, #175, ( #189 ) ) ;
#86 = DIRECTION ( 'NONE',  ( 0.0000000000000000000, 1.000000000000000000, 0.0000000000000000000 ) ) ;
#87 = FACE_OUTER_BOUND ( 'NONE', #77, .T. ) ;
#88 = CYLINDRICAL_SURFACE ( 'NONE', #202, 0.2750000000000000777 ) ;
#89 = CC_DESIGN_APPROVAL ( #165, ( #117 ) ) ;
#90 = CARTESIAN_POINT ( 'NONE',  ( 0.0000000000000000000, 0.0000000000000000000, 0.0000000000000000000 ) ) ;
#91 = ADVANCED_FACE ( 'NONE', ( #4, #87 ), #101, .F. ) ;
#92 = CARTESIAN_POINT ( 'NONE',  ( 0.0000000000000000000, 0.0000000000000000000, 0.0000000000000000000 ) ) ;
#93 = CIRCLE ( 'NONE', #240, 1.199999999999998845 ) ;
#94 = APPROVAL_STATUS ( 'not_yet_approved' ) ;
#95 = APPLICATION_PROTOCOL_DEFINITION ( 'international standard', 'config_control_design', 1994, #160 ) ;
#96 = VERTEX_POINT ( 'NONE', #219 ) ;
#97 =( LENGTH_UNIT ( ) NAMED_UNIT ( * ) SI_UNIT ( .MILLI., .METRE. ) );
#98 = CALENDAR_DATE ( 2021, 10, 11 ) ;
#99 = CIRCLE ( 'NONE', #169, 0.2750000000000000777 ) ;
#100 = PRODUCT_RELATED_PRODUCT_CATEGORY ( 'detail', '', ( #185 ) ) ;
#101 = TOROIDAL_SURFACE ( 'NONE', #38, 2.274999999999999911, 2.000000000000000000 ) ;
#102 = AXIS2_PLACEMENT_3D ( 'NONE', #177, #31, #3 ) ;
#103 = FACE_OUTER_BOUND ( 'NONE', #218, .T. ) ;
#104 = ORIENTED_EDGE ( 'NONE', *, *, #6, .T. ) ;
#105 = DIRECTION ( 'NONE',  ( 1.000000000000000000, 0.0000000000000000000, -3.469446951953622866E-15 ) ) ;
#106 = EDGE_LOOP ( 'NONE', ( #201 ) ) ;
#107 = CYLINDRICAL_SURFACE ( 'NONE', #102, 1.499999999999996225 ) ;
#108 = EDGE_LOOP ( 'NONE', ( #29 ) ) ;
#109 = CC_DESIGN_DATE_AND_TIME_ASSIGNMENT ( #64, #196, ( #117 ) ) ;
#110 = CLOSED_SHELL ( 'NONE', ( #66, #223, #143, #91, #121, #233 ) ) ;
#111 = FACE_OUTER_BOUND ( 'NONE', #179, .T. ) ;
#112 = MECHANICAL_CONTEXT ( 'NONE', #170, 'mechanical' ) ;
#113 = CARTESIAN_POINT ( 'NONE',  ( -6.413803915257457113E-31, 2.249659577954772199E-32, -1.836986451539393076E-16 ) ) ;
#114 = CARTESIAN_POINT ( 'NONE',  ( 1.880186175748647643E-14, 0.0000000000000000000, 5.385067234446764495 ) ) ;
#115 = CARTESIAN_POINT ( 'NONE',  ( 1.920314736363722951E-15, -7.950815931560387214E-17, 0.5499999999999998224 ) ) ;
#116 = PLANE ( 'NONE',  #10 ) ;
#117 = SECURITY_CLASSIFICATION ( '', '', #208 ) ;
#118 = PERSON_AND_ORGANIZATION ( #45, #28 ) ;
#119 = FACE_OUTER_BOUND ( 'NONE', #129, .T. ) ;
#120 = COORDINATED_UNIVERSAL_TIME_OFFSET ( 1, 0, .AHEAD. ) ;
#121 = ADVANCED_FACE ( 'NONE', ( #173, #242 ), #81, .T. ) ;
#122 =( GEOMETRIC_REPRESENTATION_CONTEXT ( 3 ) GLOBAL_UNCERTAINTY_ASSIGNED_CONTEXT ( ( #164 ) ) GLOBAL_UNIT_ASSIGNED_CONTEXT ( ( #97, #188, #131 ) ) REPRESENTATION_CONTEXT ( 'NONE', 'WORKASPACE' ) );
#123 = ADVANCED_BREP_SHAPE_REPRESENTATION ( '63683', ( #197, #26, #229 ), #122 ) ;
#124 = DATE_TIME_ROLE ( 'creation_date' ) ;
#125 = CC_DESIGN_PERSON_AND_ORGANIZATION_ASSIGNMENT ( #136, #62, ( #189 ) ) ;
#126 = CC_DESIGN_APPROVAL ( #23, ( #162 ) ) ;
#127 = CARTESIAN_POINT ( 'NONE',  ( 1.316288464743861212E-13, 1.499999999999994005, 37.69999999999999574 ) ) ;
#128 = DIRECTION ( 'NONE',  ( 3.491481338843133355E-15, -1.224646799147353207E-16, 1.000000000000000000 ) ) ;
#129 = EDGE_LOOP ( 'NONE', ( #167 ) ) ;
#130 = AXIS2_PLACEMENT_3D ( 'NONE', #37, #168, #239 ) ;
#131 =( NAMED_UNIT ( * ) SI_UNIT ( $, .STERADIAN. ) SOLID_ANGLE_UNIT ( ) );
#132 = DIRECTION ( 'NONE',  ( 1.000000000000000000, 0.0000000000000000000, -3.491481338843133750E-15 ) ) ;
#133 = VERTEX_POINT ( 'NONE', #241 ) ;
#134 = EDGE_CURVE ( 'NONE', #181, #181, #157, .T. ) ;
#135 = CIRCLE ( 'NONE', #152, 0.2750000000000000777 ) ;
#136 = PERSON_AND_ORGANIZATION ( #45, #28 ) ;
#137 = APPROVAL_ROLE ( '' ) ;
#138 = DIRECTION ( 'NONE',  ( 0.0000000000000000000, 1.000000000000000000, 0.0000000000000000000 ) ) ;
#139 = APPROVAL_STATUS ( 'not_yet_approved' ) ;
#140 = PLANE ( 'NONE',  #63 ) ;
#141 = AXIS2_PLACEMENT_3D ( 'NONE', #114, #206, #191 ) ;
#142 = DIRECTION ( 'NONE',  ( -4.275831445896958607E-31, -1.000000000000000000, -1.224646799147353207E-16 ) ) ;
#143 = ADVANCED_FACE ( 'NONE', ( #119 ), #67, .F. ) ;
#144 = DIRECTION ( 'NONE',  ( 1.000000000000000000, 0.0000000000000000000, -3.548298019043467945E-15 ) ) ;
#145 = ORIENTED_EDGE ( 'NONE', *, *, #48, .T. ) ;
#146 = APPROVAL_PERSON_ORGANIZATION ( #84, #165, #137 ) ;
#147 = PRODUCT_DEFINITION_SHAPE ( 'NONE', 'NONE',  #162 ) ;
#148 = VERTEX_POINT ( 'NONE', #151 ) ;
#149 = ORIENTED_EDGE ( 'NONE', *, *, #134, .F. ) ;
#150 = COORDINATED_UNIVERSAL_TIME_OFFSET ( 1, 0, .AHEAD. ) ;
#151 = CARTESIAN_POINT ( 'NONE',  ( 0.2750000000000019651, 0.0000000000000000000, 0.5499999999999982681 ) ) ;
#152 = AXIS2_PLACEMENT_3D ( 'NONE', #47, #159, #199 ) ;
#153 = EDGE_LOOP ( 'NONE', ( #145 ) ) ;
#154 = CALENDAR_DATE ( 2021, 10, 11 ) ;
#155 = DIRECTION ( 'NONE',  ( 3.491481338843133355E-15, -0.0000000000000000000, 1.000000000000000000 ) ) ;
#156 = PERSON_AND_ORGANIZATION ( #45, #28 ) ;
#157 = CIRCLE ( 'NONE', #225, 0.3431483474218600671 ) ;
#158 = AXIS2_PLACEMENT_3D ( 'NONE', #194, #19, #9 ) ;
#159 = DIRECTION ( 'NONE',  ( 3.491481338843133355E-15, -0.0000000000000000000, 1.000000000000000000 ) ) ;
#160 = APPLICATION_CONTEXT ( 'configuration controlled 3d designs of mechanical parts and assemblies' ) ;
#161 = EDGE_LOOP ( 'NONE', ( #74 ) ) ;
#162 = PRODUCT_DEFINITION ( 'UNKNOWN', '', #189, #187 ) ;
#163 = APPROVAL_ROLE ( '' ) ;
#164 = UNCERTAINTY_MEASURE_WITH_UNIT (LENGTH_MEASURE( 1.000000000000000082E-05 ), #97, 'distance_accuracy_value', 'NONE');
#165 = APPROVAL ( #139, 'UNSPECIFIED' ) ;
#166 = FACE_OUTER_BOUND ( 'NONE', #108, .T. ) ;
#167 = ORIENTED_EDGE ( 'NONE', *, *, #79, .F. ) ;
#168 = DIRECTION ( 'NONE',  ( -3.491481338843133355E-15, 1.224646799147353207E-16, -1.000000000000000000 ) ) ;
#169 = AXIS2_PLACEMENT_3D ( 'NONE', #90, #57, #132 ) ;
#170 = APPLICATION_CONTEXT ( 'configuration controlled 3d designs of mechanical parts and assemblies' ) ;
#171 = CARTESIAN_POINT ( 'NONE',  ( 1.920314736363721768E-15, 0.0000000000000000000, 0.5499999999999994893 ) ) ;
#172 = APPLICATION_PROTOCOL_DEFINITION ( 'international standard', 'config_control_design', 1994, #170 ) ;
#173 = FACE_BOUND ( 'NONE', #78, .T. ) ;
#174 = CC_DESIGN_SECURITY_CLASSIFICATION ( #117, ( #189 ) ) ;
#175 = PERSON_AND_ORGANIZATION_ROLE ( 'design_supplier' ) ;
#176 = PERSON_AND_ORGANIZATION ( #45, #28 ) ;
#177 = CARTESIAN_POINT ( 'NONE',  ( 0.0000000000000000000, 0.0000000000000000000, 0.0000000000000000000 ) ) ;
#178 = AXIS2_PLACEMENT_3D ( 'NONE', #60, #42, #138 ) ;
#179 = EDGE_LOOP ( 'NONE', ( #13 ) ) ;
#180 = EDGE_CURVE ( 'NONE', #184, #184, #99, .T. ) ;
#181 = VERTEX_POINT ( 'NONE', #220 ) ;
#182 = EDGE_LOOP ( 'NONE', ( #50 ) ) ;
#183 = CLOSED_SHELL ( 'NONE', ( #80, #193, #200 ) ) ;
#184 = VERTEX_POINT ( 'NONE', #71 ) ;
#185 = PRODUCT ( '63683', '63683', '', ( #112 ) ) ;
#186 = DATE_AND_TIME ( #32, #25 ) ;
#187 = DESIGN_CONTEXT ( 'detailed design', #160, 'design' ) ;
#188 =( NAMED_UNIT ( * ) PLANE_ANGLE_UNIT ( ) SI_UNIT ( $, .RADIAN. ) );
#189 = PRODUCT_DEFINITION_FORMATION_WITH_SPECIFIED_SOURCE ( 'ANY', '', #185, .NOT_KNOWN. ) ;
#190 = CARTESIAN_POINT ( 'NONE',  ( 3.727638468588976571E-15, 0.0000000000000000000, 1.067638090205027979 ) ) ;
#191 = DIRECTION ( 'NONE',  ( 1.000000000000000000, 0.0000000000000000000, -3.469446951953622866E-15 ) ) ;
#192 = DIRECTION ( 'NONE',  ( 1.000000000000000000, 0.0000000000000000000, -3.791487316659369797E-15 ) ) ;
#193 = ADVANCED_FACE ( 'NONE', ( #59, #111 ), #88, .T. ) ;
#194 = CARTESIAN_POINT ( 'NONE',  ( 1.326762908760390423E-13, 8.998558695971069014E-33, 38.00000000000000000 ) ) ;
#195 = CC_DESIGN_PERSON_AND_ORGANIZATION_ASSIGNMENT ( #156, #41, ( #117 ) ) ;
#196 = DATE_TIME_ROLE ( 'classification_date' ) ;
#197 = MANIFOLD_SOLID_BREP ( 'Corps-Déplacer/Copier1[1]', #110 ) ;
#198 = CARTESIAN_POINT ( 'NONE',  ( 1.920314736363720979E-15, 0.0000000000000000000, 0.5499999999999992673 ) ) ;
#199 = DIRECTION ( 'NONE',  ( 1.000000000000000000, 0.0000000000000000000, -3.548298019043467945E-15 ) ) ;
#200 = ADVANCED_FACE ( 'NONE', ( #166 ), #34, .F. ) ;
#201 = ORIENTED_EDGE ( 'NONE', *, *, #48, .F. ) ;
#202 = AXIS2_PLACEMENT_3D ( 'NONE', #207, #155, #205 ) ;
#203 = AXIS2_PLACEMENT_3D ( 'NONE', #27, #2, #105 ) ;
#204 = ORIENTED_EDGE ( 'NONE', *, *, #46, .T. ) ;
#205 = DIRECTION ( 'NONE',  ( 1.000000000000000000, 0.0000000000000000000, -3.491481338843133750E-15 ) ) ;
#206 = DIRECTION ( 'NONE',  ( 3.491481338843133355E-15, -0.0000000000000000000, 1.000000000000000000 ) ) ;
#207 = CARTESIAN_POINT ( 'NONE',  ( -1.786038389295302186E-30, 0.0000000000000000000, -5.115417256925931626E-16 ) ) ;
#208 = SECURITY_CLASSIFICATION_LEVEL ( 'unclassified' ) ;
#209 = LOCAL_TIME ( 7, 36, 19.00000000000000000, #22 ) ;
#210 = CC_DESIGN_PERSON_AND_ORGANIZATION_ASSIGNMENT ( #236, #14, ( #185 ) ) ;
#211 = CALENDAR_DATE ( 2021, 10, 11 ) ;
#212 = SHAPE_DEFINITION_REPRESENTATION ( #147, #123 ) ;
#213 = CARTESIAN_POINT ( 'NONE',  ( 1.326762908760390423E-13, -4.653657836759941941E-15, 38.00000000000000000 ) ) ;
#214 = APPROVAL_PERSON_ORGANIZATION ( #224, #234, #228 ) ;
#215 = FACE_OUTER_BOUND ( 'NONE', #153, .T. ) ;
#216 = LOCAL_TIME ( 7, 36, 19.00000000000000000, #243 ) ;
#217 = FACE_OUTER_BOUND ( 'NONE', #83, .T. ) ;
#218 = EDGE_LOOP ( 'NONE', ( #56 ) ) ;
#219 = CARTESIAN_POINT ( 'NONE',  ( 1.326762908760390423E-13, 1.199999999999994182, 38.00000000000000000 ) ) ;
#220 = CARTESIAN_POINT ( 'NONE',  ( 0.3431483474218638419, 0.0000000000000000000, 1.067638090205026646 ) ) ;
#221 = DIRECTION ( 'NONE',  ( -4.275831445896958607E-31, -1.000000000000000000, -1.224646799147353207E-16 ) ) ;
#222 = DATE_AND_TIME ( #154, #216 ) ;
#223 = ADVANCED_FACE ( 'NONE', ( #217, #58 ), #20, .T. ) ;
#224 = PERSON_AND_ORGANIZATION ( #45, #28 ) ;
#225 = AXIS2_PLACEMENT_3D ( 'NONE', #190, #40, #192 ) ;
#226 = DATE_AND_TIME ( #61, #51 ) ;
#227 = APPROVAL_STATUS ( 'not_yet_approved' ) ;
#228 = APPROVAL_ROLE ( '' ) ;
#229 = AXIS2_PLACEMENT_3D ( 'NONE', #92, #16, #11 ) ;
#230 = LOCAL_TIME ( 7, 36, 19.00000000000000000, #120 ) ;
#231 = EDGE_LOOP ( 'NONE', ( #104 ) ) ;
#232 = EDGE_LOOP ( 'NONE', ( #204 ) ) ;
#233 = ADVANCED_FACE ( 'NONE', ( #54 ), #116, .F. ) ;
#234 = APPROVAL ( #227, 'UNSPECIFIED' ) ;
#235 = CIRCLE ( 'NONE', #178, 1.499999999999998446 ) ;
#236 = PERSON_AND_ORGANIZATION ( #45, #28 ) ;
#237 = DIRECTION ( 'NONE',  ( -4.275831445896958607E-31, -1.000000000000000000, -1.224646799147353207E-16 ) ) ;
#238 = EDGE_LOOP ( 'NONE', ( #35 ) ) ;
#239 = DIRECTION ( 'NONE',  ( 0.0000000000000000000, 1.000000000000000000, 0.0000000000000000000 ) ) ;
#240 = AXIS2_PLACEMENT_3D ( 'NONE', #213, #24, #86 ) ;
#241 = CARTESIAN_POINT ( 'NONE',  ( 0.2750000000000019651, 0.0000000000000000000, 0.5499999999999982681 ) ) ;
#242 = FACE_OUTER_BOUND ( 'NONE', #106, .T. ) ;
#243 = COORDINATED_UNIVERSAL_TIME_OFFSET ( 1, 0, .AHEAD. ) ;
ENDSEC;
END-ISO-10303-21;
